ISO-10303-21;
HEADER;
FILE_DESCRIPTION((''),'2;1');
FILE_NAME('C:/Program Files/Kubotek/KeyCreatorPro.2021.SP0/STEP/SG1808.STP', '2021-02-23T13:29:23',(''), (''), 'KCM Version 2.0.6974.6974', 'KeyCreator Pro', '');
FILE_SCHEMA(('AUTOMOTIVE_DESIGN'));
ENDSEC;
DATA;
#1=PRODUCT_DEFINITION_CONTEXT('',#4,'design');
#2=PRODUCT_CONTEXT('',#4,'mechanical');
#3=APPLICATION_PROTOCOL_DEFINITION('International Standard','automotive_design',2001,#4);
#4=APPLICATION_CONTEXT('automotive design');
#10=DIMENSIONAL_EXPONENTS(1.0,0.0,0.0,0.0,0.0,0.0,0.0);
#11=DIMENSIONAL_EXPONENTS(0.0,0.0,0.0,0.0,0.0,0.0,0.0);
#12=(NAMED_UNIT(#10)LENGTH_UNIT()SI_UNIT(.MILLI.,.METRE.));
#13=(NAMED_UNIT(#11)PLANE_ANGLE_UNIT()SI_UNIT($,.RADIAN.));
#14=(NAMED_UNIT(#11)SOLID_ANGLE_UNIT()SI_UNIT($,.STERADIAN.));
#15=LENGTH_MEASURE_WITH_UNIT(LENGTH_MEASURE(25.4),#12);
#16= (CONVERSION_BASED_UNIT('INCH',#15)LENGTH_UNIT()NAMED_UNIT(#10));
#17=UNCERTAINTY_MEASURE_WITH_UNIT(LENGTH_MEASURE(1.0E-006),#16,'','');
#18=(GEOMETRIC_REPRESENTATION_CONTEXT(3)GLOBAL_UNCERTAINTY_ASSIGNED_CONTEXT((#17))GLOBAL_UNIT_ASSIGNED_CONTEXT((#16,#13,#14))REPRESENTATION_CONTEXT('NONE','WORKSPACE'));
#20=CARTESIAN_POINT('',(0.00000000000000,0.00000000000000,0.00000000000000));
#21=DIRECTION('',(0.00000000000000,0.00000000000000,1.00000000000000));
#22=DIRECTION('',(1.00000000000000,0.00000000000000,0.00000000000000));
#23=AXIS2_PLACEMENT_3D('',#20,#21,#22);
#24=CARTESIAN_POINT('',(0.125000000000000,7.25000000000000,1.18750000000000));
#25=VERTEX_POINT('',#24);
#26=CARTESIAN_POINT('',(1.38777878078145E-16,7.25000000000000,1.18750000000000));
#27=VERTEX_POINT('',#26);
#28=CARTESIAN_POINT('',(0.0625000000000001,7.25000000000000,1.18750000000000));
#29=DIRECTION('',(0.00000000000000,-1.00000000000000,6.12323399573677E-17));
#30=DIRECTION('',(1.00000000000000,0.00000000000000,0.00000000000000));
#31=AXIS2_PLACEMENT_3D('',#28,#29,#30);
#32=CIRCLE('',#31,0.0625000000000000);
#33=EDGE_CURVE('',#25,#27,#32,.T.);
#34=ORIENTED_EDGE('',*,*,#33,.T.);
#35=CARTESIAN_POINT('',(0.00000000000000,1.25000000000000,1.18750000000000));
#36=VERTEX_POINT('',#35);
#37=CARTESIAN_POINT('',(0.00000000000000,1.25000000000000,1.18750000000000));
#38=DIRECTION('',(2.31296463463574E-17,1.00000000000000,-1.48029736616688E-16));
#39=VECTOR('',#38,1.00000000000000);
#40=LINE('',#37,#39);
#41=EDGE_CURVE('',#36,#27,#40,.T.);
#42=ORIENTED_EDGE('',*,*,#41,.F.);
#43=CARTESIAN_POINT('',(0.125000000000000,1.25000000000000,1.18750000000000));
#44=VERTEX_POINT('',#43);
#45=CARTESIAN_POINT('',(0.0625000000000000,1.25000000000000,1.18750000000000));
#46=DIRECTION('',(0.00000000000000,-1.00000000000000,6.12323399573677E-17));
#47=DIRECTION('',(1.00000000000000,0.00000000000000,0.00000000000000));
#48=AXIS2_PLACEMENT_3D('',#45,#46,#47);
#49=CIRCLE('',#48,0.0625000000000000);
#50=EDGE_CURVE('',#44,#36,#49,.T.);
#51=ORIENTED_EDGE('',*,*,#50,.F.);
#52=CARTESIAN_POINT('',(0.125000000000000,1.25000000000000,1.18750000000000));
#53=DIRECTION('',(2.31296463463574E-17,1.00000000000000,-1.48029736616688E-16));
#54=VECTOR('',#53,1.00000000000000);
#55=LINE('',#52,#54);
#56=EDGE_CURVE('',#44,#25,#55,.T.);
#57=ORIENTED_EDGE('',*,*,#56,.T.);
#58=EDGE_LOOP('',(#34,#42,#51,#57));
#59=FACE_OUTER_BOUND('',#58,.T.);
#60=CARTESIAN_POINT('',(0.0625000000000000,1.25000000000000,1.18750000000000));
#61=DIRECTION('',(2.31296463463574E-17,1.00000000000000,-1.48029736616688E-16));
#62=DIRECTION('',(0.00000000000000,0.00000000000000,-1.00000000000000));
#63=AXIS2_PLACEMENT_3D('',#60,#61,#62);
#64=CYLINDRICAL_SURFACE('',#63,0.0625000000000000);
#65=ADVANCED_FACE('',(#59),#64,.T.);
#66=CARTESIAN_POINT('',(1.38777878078145E-16,7.25000000000000,-1.18750000000000));
#67=VERTEX_POINT('',#66);
#68=CARTESIAN_POINT('',(1.38777878078145E-16,7.25000000000000,1.18750000000000));
#69=DIRECTION('',(0.00000000000000,-9.34924652315921E-17,-1.00000000000000));
#70=VECTOR('',#69,1.00000000000000);
#71=LINE('',#68,#70);
#72=EDGE_CURVE('',#27,#67,#71,.T.);
#73=ORIENTED_EDGE('',*,*,#72,.T.);
#74=CARTESIAN_POINT('',(0.00000000000000,1.25000000000000,-1.18750000000000));
#75=VERTEX_POINT('',#74);
#76=CARTESIAN_POINT('',(0.00000000000000,1.25000000000000,-1.18750000000000));
#77=DIRECTION('',(2.31296463463574E-17,1.00000000000000,-1.48029736616688E-16));
#78=VECTOR('',#77,1.00000000000000);
#79=LINE('',#76,#78);
#80=EDGE_CURVE('',#75,#67,#79,.T.);
#81=ORIENTED_EDGE('',*,*,#80,.F.);
#82=CARTESIAN_POINT('',(0.00000000000000,1.25000000000000,1.18750000000000));
#83=DIRECTION('',(0.00000000000000,-9.34924652315921E-17,-1.00000000000000));
#84=VECTOR('',#83,1.00000000000000);
#85=LINE('',#82,#84);
#86=EDGE_CURVE('',#36,#75,#85,.T.);
#87=ORIENTED_EDGE('',*,*,#86,.F.);
#88=ORIENTED_EDGE('',*,*,#41,.T.);
#89=EDGE_LOOP('',(#73,#81,#87,#88));
#90=FACE_OUTER_BOUND('',#89,.T.);
#91=CARTESIAN_POINT('',(0.00000000000000,1.25000000000000,0.00000000000000));
#92=DIRECTION('',(-1.00000000000000,2.31296463463574E-17,-2.16244765685584E-33));
#93=DIRECTION('',(-0.00000000000000,9.34924652315921E-17,1.00000000000000));
#94=AXIS2_PLACEMENT_3D('',#91,#92,#93);
#95=PLANE('',#94);
#96=ADVANCED_FACE('',(#90),#95,.T.);
#97=CARTESIAN_POINT('',(0.0625000000000001,7.25000000000000,-1.25000000000000));
#98=VERTEX_POINT('',#97);
#99=CARTESIAN_POINT('',(0.0625000000000001,7.25000000000000,-1.18750000000000));
#100=DIRECTION('',(0.00000000000000,-1.00000000000000,6.12323399573677E-17));
#101=DIRECTION('',(1.00000000000000,0.00000000000000,0.00000000000000));
#102=AXIS2_PLACEMENT_3D('',#99,#100,#101);
#103=CIRCLE('',#102,0.0625000000000000);
#104=EDGE_CURVE('',#67,#98,#103,.T.);
#105=ORIENTED_EDGE('',*,*,#104,.T.);
#106=CARTESIAN_POINT('',(0.0625000000000000,1.25000000000000,-1.25000000000000));
#107=VERTEX_POINT('',#106);
#108=CARTESIAN_POINT('',(0.0625000000000000,1.25000000000000,-1.25000000000000));
#109=DIRECTION('',(2.31296463463574E-17,1.00000000000000,-1.48029736616688E-16));
#110=VECTOR('',#109,1.00000000000000);
#111=LINE('',#108,#110);
#112=EDGE_CURVE('',#107,#98,#111,.T.);
#113=ORIENTED_EDGE('',*,*,#112,.F.);
#114=CARTESIAN_POINT('',(0.0625000000000000,1.25000000000000,-1.18750000000000));
#115=DIRECTION('',(0.00000000000000,-1.00000000000000,6.12323399573677E-17));
#116=DIRECTION('',(1.00000000000000,0.00000000000000,0.00000000000000));
#117=AXIS2_PLACEMENT_3D('',#114,#115,#116);
#118=CIRCLE('',#117,0.0625000000000000);
#119=EDGE_CURVE('',#75,#107,#118,.T.);
#120=ORIENTED_EDGE('',*,*,#119,.F.);
#121=ORIENTED_EDGE('',*,*,#80,.T.);
#122=EDGE_LOOP('',(#105,#113,#120,#121));
#123=FACE_OUTER_BOUND('',#122,.T.);
#124=CARTESIAN_POINT('',(0.0625000000000000,1.25000000000000,-1.18750000000000));
#125=DIRECTION('',(2.31296463463574E-17,1.00000000000000,-1.48029736616688E-16));
#126=DIRECTION('',(1.00000000000000,-2.31296463463574E-17,3.42387545668842E-33));
#127=AXIS2_PLACEMENT_3D('',#124,#125,#126);
#128=CYLINDRICAL_SURFACE('',#127,0.0625000000000000);
#129=ADVANCED_FACE('',(#123),#128,.T.);
#130=CARTESIAN_POINT('',(4.93750000000000,7.25000000000000,-1.25000000000000));
#131=VERTEX_POINT('',#130);
#132=CARTESIAN_POINT('',(0.0625000000000001,7.25000000000000,-1.25000000000000));
#133=DIRECTION('',(1.00000000000000,0.00000000000000,0.00000000000000));
#134=VECTOR('',#133,1.00000000000000);
#135=LINE('',#132,#134);
#136=EDGE_CURVE('',#98,#131,#135,.T.);
#137=ORIENTED_EDGE('',*,*,#136,.T.);
#138=CARTESIAN_POINT('',(4.93750000000000,1.25000000000000,-1.25000000000000));
#139=VERTEX_POINT('',#138);
#140=CARTESIAN_POINT('',(4.93750000000000,1.25000000000000,-1.25000000000000));
#141=DIRECTION('',(2.31296463463574E-17,1.00000000000000,-1.48029736616688E-16));
#142=VECTOR('',#141,1.00000000000000);
#143=LINE('',#140,#142);
#144=EDGE_CURVE('',#139,#131,#143,.T.);
#145=ORIENTED_EDGE('',*,*,#144,.F.);
#146=CARTESIAN_POINT('',(0.0625000000000000,1.25000000000000,-1.25000000000000));
#147=DIRECTION('',(1.00000000000000,0.00000000000000,0.00000000000000));
#148=VECTOR('',#147,1.00000000000000);
#149=LINE('',#146,#148);
#150=EDGE_CURVE('',#107,#139,#149,.T.);
#151=ORIENTED_EDGE('',*,*,#150,.F.);
#152=ORIENTED_EDGE('',*,*,#112,.T.);
#153=EDGE_LOOP('',(#137,#145,#151,#152));
#154=FACE_OUTER_BOUND('',#153,.T.);
#155=CARTESIAN_POINT('',(2.50000000000000,1.25000000000000,-1.25000000000000));
#156=DIRECTION('',(0.00000000000000,-1.48029736616688E-16,-1.00000000000000));
#157=DIRECTION('',(-1.00000000000000,-0.00000000000000,-0.00000000000000));
#158=AXIS2_PLACEMENT_3D('',#155,#156,#157);
#159=PLANE('',#158);
#160=ADVANCED_FACE('',(#154),#159,.T.);
#161=CARTESIAN_POINT('',(4.93750000000000,7.25000000000000,-1.12500000000000));
#162=VERTEX_POINT('',#161);
#163=CARTESIAN_POINT('',(4.93750000000000,7.25000000000000,-1.18750000000000));
#164=DIRECTION('',(0.00000000000000,-1.00000000000000,6.12323399573677E-17));
#165=DIRECTION('',(1.00000000000000,0.00000000000000,0.00000000000000));
#166=AXIS2_PLACEMENT_3D('',#163,#164,#165);
#167=CIRCLE('',#166,0.0625000000000000);
#168=EDGE_CURVE('',#131,#162,#167,.T.);
#169=ORIENTED_EDGE('',*,*,#168,.T.);
#170=CARTESIAN_POINT('',(4.93750000000000,1.25000000000000,-1.12500000000000));
#171=VERTEX_POINT('',#170);
#172=CARTESIAN_POINT('',(4.93750000000000,1.25000000000000,-1.12500000000000));
#173=DIRECTION('',(2.31296463463574E-17,1.00000000000000,-1.48029736616688E-16));
#174=VECTOR('',#173,1.00000000000000);
#175=LINE('',#172,#174);
#176=EDGE_CURVE('',#171,#162,#175,.T.);
#177=ORIENTED_EDGE('',*,*,#176,.F.);
#178=CARTESIAN_POINT('',(4.93750000000000,1.25000000000000,-1.18750000000000));
#179=DIRECTION('',(0.00000000000000,-1.00000000000000,6.12323399573677E-17));
#180=DIRECTION('',(1.00000000000000,0.00000000000000,0.00000000000000));
#181=AXIS2_PLACEMENT_3D('',#178,#179,#180);
#182=CIRCLE('',#181,0.0625000000000000);
#183=EDGE_CURVE('',#139,#171,#182,.T.);
#184=ORIENTED_EDGE('',*,*,#183,.F.);
#185=ORIENTED_EDGE('',*,*,#144,.T.);
#186=EDGE_LOOP('',(#169,#177,#184,#185));
#187=FACE_OUTER_BOUND('',#186,.T.);
#188=CARTESIAN_POINT('',(4.93750000000000,1.25000000000000,-1.18750000000000));
#189=DIRECTION('',(2.31296463463574E-17,1.00000000000000,-1.48029736616688E-16));
#190=DIRECTION('',(-1.00000000000000,0.00000000000000,0.00000000000000));
#191=AXIS2_PLACEMENT_3D('',#188,#189,#190);
#192=CYLINDRICAL_SURFACE('',#191,0.0625000000000000);
#193=ADVANCED_FACE('',(#187),#192,.T.);
#194=CARTESIAN_POINT('',(0.125000000000000,7.25000000000000,-1.12500000000000));
#195=VERTEX_POINT('',#194);
#196=CARTESIAN_POINT('',(0.125000000000000,7.25000000000000,-1.12500000000000));
#197=DIRECTION('',(-1.00000000000000,0.00000000000000,0.00000000000000));
#198=VECTOR('',#197,1.00000000000000);
#199=LINE('',#196,#198);
#200=EDGE_CURVE('',#162,#195,#199,.T.);
#201=ORIENTED_EDGE('',*,*,#200,.T.);
#202=CARTESIAN_POINT('',(0.125000000000000,1.25000000000000,-1.12500000000000));
#203=VERTEX_POINT('',#202);
#204=CARTESIAN_POINT('',(0.125000000000000,1.25000000000000,-1.12500000000000));
#205=DIRECTION('',(2.31296463463574E-17,1.00000000000000,-1.48029736616688E-16));
#206=VECTOR('',#205,1.00000000000000);
#207=LINE('',#204,#206);
#208=EDGE_CURVE('',#203,#195,#207,.T.);
#209=ORIENTED_EDGE('',*,*,#208,.F.);
#210=CARTESIAN_POINT('',(0.125000000000000,1.25000000000000,-1.12500000000000));
#211=DIRECTION('',(1.00000000000000,0.00000000000000,0.00000000000000));
#212=VECTOR('',#211,1.00000000000000);
#213=LINE('',#210,#212);
#214=EDGE_CURVE('',#203,#171,#213,.T.);
#215=ORIENTED_EDGE('',*,*,#214,.T.);
#216=ORIENTED_EDGE('',*,*,#176,.T.);
#217=EDGE_LOOP('',(#201,#209,#215,#216));
#218=FACE_OUTER_BOUND('',#217,.T.);
#219=CARTESIAN_POINT('',(2.53125000000000,1.25000000000000,-1.12500000000000));
#220=DIRECTION('',(-0.00000000000000,1.48029736616688E-16,1.00000000000000));
#221=DIRECTION('',(1.00000000000000,0.00000000000000,0.00000000000000));
#222=AXIS2_PLACEMENT_3D('',#219,#220,#221);
#223=PLANE('',#222);
#224=ADVANCED_FACE('',(#218),#223,.T.);
#225=CARTESIAN_POINT('',(0.125000000000000,7.25000000000000,1.18750000000000));
#226=DIRECTION('',(0.00000000000000,9.60192886162298E-17,1.00000000000000));
#227=VECTOR('',#226,1.00000000000000);
#228=LINE('',#225,#227);
#229=EDGE_CURVE('',#195,#25,#228,.T.);
#230=ORIENTED_EDGE('',*,*,#229,.T.);
#231=ORIENTED_EDGE('',*,*,#56,.F.);
#232=CARTESIAN_POINT('',(0.125000000000000,1.25000000000000,1.18750000000000));
#233=DIRECTION('',(0.00000000000000,-9.60192886162298E-17,-1.00000000000000));
#234=VECTOR('',#233,1.00000000000000);
#235=LINE('',#232,#234);
#236=EDGE_CURVE('',#44,#203,#235,.T.);
#237=ORIENTED_EDGE('',*,*,#236,.T.);
#238=ORIENTED_EDGE('',*,*,#208,.T.);
#239=EDGE_LOOP('',(#230,#231,#237,#238));
#240=FACE_OUTER_BOUND('',#239,.T.);
#241=CARTESIAN_POINT('',(0.125000000000000,1.25000000000000,0.0312500000000000));
#242=DIRECTION('',(1.00000000000000,-2.31296463463574E-17,2.22089218812222E-33));
#243=DIRECTION('',(0.00000000000000,-9.60192886162298E-17,-1.00000000000000));
#244=AXIS2_PLACEMENT_3D('',#241,#242,#243);
#245=PLANE('',#244);
#246=ADVANCED_FACE('',(#240),#245,.T.);
#247=ORIENTED_EDGE('',*,*,#33,.F.);
#248=ORIENTED_EDGE('',*,*,#229,.F.);
#249=ORIENTED_EDGE('',*,*,#200,.F.);
#250=ORIENTED_EDGE('',*,*,#168,.F.);
#251=ORIENTED_EDGE('',*,*,#136,.F.);
#252=ORIENTED_EDGE('',*,*,#104,.F.);
#253=ORIENTED_EDGE('',*,*,#72,.F.);
#254=EDGE_LOOP('',(#247,#248,#249,#250,#251,#252,#253));
#255=FACE_OUTER_BOUND('',#254,.T.);
#256=CARTESIAN_POINT('',(0.125000000000000,7.25000000000000,0.465248437499999));
#257=DIRECTION('',(-2.18047946465002E-17,-1.00000000000000,1.39628877909230E-16));
#258=DIRECTION('',(1.00000000000000,-2.18047946465002E-17,1.72678772272513E-66));
#259=AXIS2_PLACEMENT_3D('',#256,#257,#258);
#260=PLANE('',#259);
#261=ADVANCED_FACE('',(#255),#260,.F.);
#262=ORIENTED_EDGE('',*,*,#236,.F.);
#263=ORIENTED_EDGE('',*,*,#50,.T.);
#264=ORIENTED_EDGE('',*,*,#86,.T.);
#265=ORIENTED_EDGE('',*,*,#119,.T.);
#266=ORIENTED_EDGE('',*,*,#150,.T.);
#267=ORIENTED_EDGE('',*,*,#183,.T.);
#268=ORIENTED_EDGE('',*,*,#214,.F.);
#269=EDGE_LOOP('',(#262,#263,#264,#265,#266,#267,#268));
#270=FACE_OUTER_BOUND('',#269,.T.);
#271=CARTESIAN_POINT('',(0.125000000000000,1.25000000000000,0.465248437500000));
#272=DIRECTION('',(-2.18047946465002E-17,-1.00000000000000,1.39628877909230E-16));
#273=DIRECTION('',(1.00000000000000,-2.18047946465002E-17,0.00000000000000));
#274=AXIS2_PLACEMENT_3D('',#271,#272,#273);
#275=PLANE('',#274);
#276=ADVANCED_FACE('',(#270),#275,.T.);
#277=CLOSED_SHELL('',(#65,#96,#129,#160,#193,#224,#246,#261,#276));
#278=MANIFOLD_SOLID_BREP('',#277);
#279=COLOUR_RGB('',1.00000000000000,0.00000000000000,0.00000000000000);
#280=FILL_AREA_STYLE_COLOUR('',#279);
#281=FILL_AREA_STYLE('',(#280));
#282=SURFACE_STYLE_FILL_AREA(#281);
#283=SURFACE_SIDE_STYLE('',(#282));
#284=SURFACE_STYLE_USAGE(.BOTH.,#283);
#285=PRESENTATION_STYLE_ASSIGNMENT((#284));
#286=STYLED_ITEM('',(#285),#278);
#287=ADVANCED_BREP_SHAPE_REPRESENTATION('',(#278,#23),#18);
#288=PRODUCT('', '', ' ',(#2));
#289=PRODUCT_DEFINITION_FORMATION_WITH_SPECIFIED_SOURCE (' ', ' ', #288, .NOT_KNOWN.) ;
#290=PRODUCT_CATEGORY('part','') ;
#291=PRODUCT_RELATED_PRODUCT_CATEGORY('detail', ' ', (#288)) ;
#292=PRODUCT_CATEGORY_RELATIONSHIP(' ', ' ', #290, #291);
#293=PRODUCT_DEFINITION('', '', #289, #1);
#294=PRODUCT_DEFINITION_SHAPE('NONE', 'NONE', #293);
#295=SHAPE_DEFINITION_REPRESENTATION(#294, #287);
#296=PRESENTATION_LAYER_ASSIGNMENT('1','Unnamed [1]',(#278));
#297=MECHANICAL_DESIGN_GEOMETRIC_PRESENTATION_REPRESENTATION('',(#286), #18);
ENDSEC;
END-ISO-10303-21;
