ISO-10303-21;
HEADER;
FILE_DESCRIPTION((''),'2;1');
FILE_NAME('C:/Program Files/Kubotek/KeyCreatorPro.2021.SP0/STEP/SG1678.STP', '2021-02-02T21:13:07',(''), (''), 'KCM Version 2.0.6974.6974', 'KeyCreator Pro', '');
FILE_SCHEMA(('AUTOMOTIVE_DESIGN'));
ENDSEC;
DATA;
#1=PRODUCT_DEFINITION_CONTEXT('',#4,'design');
#2=PRODUCT_CONTEXT('',#4,'mechanical');
#3=APPLICATION_PROTOCOL_DEFINITION('International Standard','automotive_design',2001,#4);
#4=APPLICATION_CONTEXT('automotive design');
#10=DIMENSIONAL_EXPONENTS(1.0,0.0,0.0,0.0,0.0,0.0,0.0);
#11=DIMENSIONAL_EXPONENTS(0.0,0.0,0.0,0.0,0.0,0.0,0.0);
#12=(NAMED_UNIT(#10)LENGTH_UNIT()SI_UNIT(.MILLI.,.METRE.));
#13=(NAMED_UNIT(#11)PLANE_ANGLE_UNIT()SI_UNIT($,.RADIAN.));
#14=(NAMED_UNIT(#11)SOLID_ANGLE_UNIT()SI_UNIT($,.STERADIAN.));
#15=LENGTH_MEASURE_WITH_UNIT(LENGTH_MEASURE(25.4),#12);
#16= (CONVERSION_BASED_UNIT('INCH',#15)LENGTH_UNIT()NAMED_UNIT(#10));
#17=UNCERTAINTY_MEASURE_WITH_UNIT(LENGTH_MEASURE(1.0E-006),#16,'','');
#18=(GEOMETRIC_REPRESENTATION_CONTEXT(3)GLOBAL_UNCERTAINTY_ASSIGNED_CONTEXT((#17))GLOBAL_UNIT_ASSIGNED_CONTEXT((#16,#13,#14))REPRESENTATION_CONTEXT('NONE','WORKSPACE'));
#20=CARTESIAN_POINT('',(0.00000000000000,0.00000000000000,0.00000000000000));
#21=DIRECTION('',(0.00000000000000,0.00000000000000,1.00000000000000));
#22=DIRECTION('',(1.00000000000000,0.00000000000000,0.00000000000000));
#23=AXIS2_PLACEMENT_3D('',#20,#21,#22);
#24=CARTESIAN_POINT('',(3.11873404717516,10.7164371126524,0.216937162243495));
#25=VERTEX_POINT('',#24);
#26=CARTESIAN_POINT('',(3.05904756546020,10.7164371126524,0.283062837756505));
#27=VERTEX_POINT('',#26);
#28=CARTESIAN_POINT('',(3.05904756546020,10.7164371126524,0.223062837756505));
#29=DIRECTION('',(0.00000000000000,-1.00000000000000,6.12323399573677E-17));
#30=DIRECTION('',(1.00000000000000,0.00000000000000,0.00000000000000));
#31=AXIS2_PLACEMENT_3D('',#28,#29,#30);
#32=CIRCLE('',#31,0.0599999999999996);
#33=EDGE_CURVE('',#25,#27,#32,.T.);
#34=ORIENTED_EDGE('',*,*,#33,.T.);
#35=CARTESIAN_POINT('',(3.05904756546020,4.71643711265243,0.283062837756505));
#36=VERTEX_POINT('',#35);
#37=CARTESIAN_POINT('',(3.05904756546020,4.71643711265243,0.283062837756505));
#38=DIRECTION('',(0.00000000000000,1.00000000000000,0.00000000000000));
#39=VECTOR('',#38,1.00000000000000);
#40=LINE('',#37,#39);
#41=EDGE_CURVE('',#36,#27,#40,.T.);
#42=ORIENTED_EDGE('',*,*,#41,.F.);
#43=CARTESIAN_POINT('',(3.11873404717516,4.71643711265243,0.216937162243495));
#44=VERTEX_POINT('',#43);
#45=CARTESIAN_POINT('',(3.05904756546020,4.71643711265243,0.223062837756505));
#46=DIRECTION('',(0.00000000000000,-1.00000000000000,6.12323399573677E-17));
#47=DIRECTION('',(1.00000000000000,0.00000000000000,0.00000000000000));
#48=AXIS2_PLACEMENT_3D('',#45,#46,#47);
#49=CIRCLE('',#48,0.0599999999999996);
#50=EDGE_CURVE('',#44,#36,#49,.T.);
#51=ORIENTED_EDGE('',*,*,#50,.F.);
#52=CARTESIAN_POINT('',(3.11873404717516,4.71643711265243,0.216937162243495));
#53=DIRECTION('',(0.00000000000000,1.00000000000000,0.00000000000000));
#54=VECTOR('',#53,1.00000000000000);
#55=LINE('',#52,#54);
#56=EDGE_CURVE('',#44,#25,#55,.T.);
#57=ORIENTED_EDGE('',*,*,#56,.T.);
#58=EDGE_LOOP('',(#34,#42,#51,#57));
#59=FACE_OUTER_BOUND('',#58,.T.);
#60=CARTESIAN_POINT('',(3.05904756546020,4.71643711265243,0.223062837756505));
#61=DIRECTION('',(0.00000000000000,1.00000000000000,0.00000000000000));
#62=DIRECTION('',(-0.742325599680997,0.00000000000000,-0.670039330232374));
#63=AXIS2_PLACEMENT_3D('',#60,#61,#62);
#64=CYLINDRICAL_SURFACE('',#63,0.0599999999999996);
#65=ADVANCED_FACE('',(#59),#64,.T.);
#66=CARTESIAN_POINT('',(2.99904756546021,10.7164371126524,0.283062837756505));
#67=VERTEX_POINT('',#66);
#68=CARTESIAN_POINT('',(3.02904756546021,10.7164371126524,0.283062837756505));
#69=DIRECTION('',(-1.00000000000000,-0.00000000000000,-0.00000000000000));
#70=VECTOR('',#69,1.00000000000000);
#71=LINE('',#68,#70);
#72=EDGE_CURVE('',#27,#67,#71,.T.);
#73=ORIENTED_EDGE('',*,*,#72,.T.);
#74=CARTESIAN_POINT('',(2.99904756546021,4.71643711265243,0.283062837756505));
#75=VERTEX_POINT('',#74);
#76=CARTESIAN_POINT('',(2.99904756546021,4.71643711265243,0.283062837756505));
#77=DIRECTION('',(0.00000000000000,1.00000000000000,0.00000000000000));
#78=VECTOR('',#77,1.00000000000000);
#79=LINE('',#76,#78);
#80=EDGE_CURVE('',#75,#67,#79,.T.);
#81=ORIENTED_EDGE('',*,*,#80,.F.);
#82=CARTESIAN_POINT('',(3.02904756546021,4.71643711265243,0.283062837756505));
#83=DIRECTION('',(1.00000000000000,0.00000000000000,0.00000000000000));
#84=VECTOR('',#83,1.00000000000000);
#85=LINE('',#82,#84);
#86=EDGE_CURVE('',#75,#36,#85,.T.);
#87=ORIENTED_EDGE('',*,*,#86,.T.);
#88=ORIENTED_EDGE('',*,*,#41,.T.);
#89=EDGE_LOOP('',(#73,#81,#87,#88));
#90=FACE_OUTER_BOUND('',#89,.T.);
#91=CARTESIAN_POINT('',(3.02904756546021,4.71643711265243,0.283062837756505));
#92=DIRECTION('',(0.00000000000000,0.00000000000000,1.00000000000000));
#93=DIRECTION('',(1.00000000000000,0.00000000000000,0.00000000000000));
#94=AXIS2_PLACEMENT_3D('',#91,#92,#93);
#95=PLANE('',#94);
#96=ADVANCED_FACE('',(#90),#95,.T.);
#97=CARTESIAN_POINT('',(2.93936108374526,10.7164371126524,0.216937162243495));
#98=VERTEX_POINT('',#97);
#99=CARTESIAN_POINT('',(2.99904756546021,10.7164371126524,0.223062837756505));
#100=DIRECTION('',(0.00000000000000,-1.00000000000000,6.12323399573677E-17));
#101=DIRECTION('',(1.00000000000000,0.00000000000000,0.00000000000000));
#102=AXIS2_PLACEMENT_3D('',#99,#100,#101);
#103=CIRCLE('',#102,0.0599999999999993);
#104=EDGE_CURVE('',#67,#98,#103,.T.);
#105=ORIENTED_EDGE('',*,*,#104,.T.);
#106=CARTESIAN_POINT('',(2.93936108374526,4.71643711265243,0.216937162243495));
#107=VERTEX_POINT('',#106);
#108=CARTESIAN_POINT('',(2.93936108374526,4.71643711265243,0.216937162243495));
#109=DIRECTION('',(0.00000000000000,1.00000000000000,0.00000000000000));
#110=VECTOR('',#109,1.00000000000000);
#111=LINE('',#108,#110);
#112=EDGE_CURVE('',#107,#98,#111,.T.);
#113=ORIENTED_EDGE('',*,*,#112,.F.);
#114=CARTESIAN_POINT('',(2.99904756546021,4.71643711265243,0.223062837756505));
#115=DIRECTION('',(0.00000000000000,-1.00000000000000,6.12323399573677E-17));
#116=DIRECTION('',(1.00000000000000,0.00000000000000,0.00000000000000));
#117=AXIS2_PLACEMENT_3D('',#114,#115,#116);
#118=CIRCLE('',#117,0.0599999999999993);
#119=EDGE_CURVE('',#75,#107,#118,.T.);
#120=ORIENTED_EDGE('',*,*,#119,.F.);
#121=ORIENTED_EDGE('',*,*,#80,.T.);
#122=EDGE_LOOP('',(#105,#113,#120,#121));
#123=FACE_OUTER_BOUND('',#122,.T.);
#124=CARTESIAN_POINT('',(2.99904756546021,4.71643711265243,0.223062837756505));
#125=DIRECTION('',(0.00000000000000,1.00000000000000,0.00000000000000));
#126=DIRECTION('',(1.00000000000000,-0.00000000000000,0.00000000000000));
#127=AXIS2_PLACEMENT_3D('',#124,#125,#126);
#128=CYLINDRICAL_SURFACE('',#127,0.0599999999999993);
#129=ADVANCED_FACE('',(#123),#128,.T.);
#130=CARTESIAN_POINT('',(2.98388998290079,10.7164371126524,-0.216937162243495));
#131=VERTEX_POINT('',#130);
#132=CARTESIAN_POINT('',(2.93936108374526,10.7164371126524,0.216937162243495));
#133=DIRECTION('',(0.102094591883494,0.00000000000000,-0.994774695249202));
#134=VECTOR('',#133,1.00000000000000);
#135=LINE('',#132,#134);
#136=EDGE_CURVE('',#98,#131,#135,.T.);
#137=ORIENTED_EDGE('',*,*,#136,.T.);
#138=CARTESIAN_POINT('',(2.98388998290079,4.71643711265243,-0.216937162243495));
#139=VERTEX_POINT('',#138);
#140=CARTESIAN_POINT('',(2.98388998290079,4.71643711265243,-0.216937162243495));
#141=DIRECTION('',(0.00000000000000,1.00000000000000,0.00000000000000));
#142=VECTOR('',#141,1.00000000000000);
#143=LINE('',#140,#142);
#144=EDGE_CURVE('',#139,#131,#143,.T.);
#145=ORIENTED_EDGE('',*,*,#144,.F.);
#146=CARTESIAN_POINT('',(2.93936108374526,4.71643711265243,0.216937162243495));
#147=DIRECTION('',(0.102094591883494,0.00000000000000,-0.994774695249202));
#148=VECTOR('',#147,1.00000000000000);
#149=LINE('',#146,#148);
#150=EDGE_CURVE('',#107,#139,#149,.T.);
#151=ORIENTED_EDGE('',*,*,#150,.F.);
#152=ORIENTED_EDGE('',*,*,#112,.T.);
#153=EDGE_LOOP('',(#137,#145,#151,#152));
#154=FACE_OUTER_BOUND('',#153,.T.);
#155=CARTESIAN_POINT('',(2.96162553332302,4.71643711265243,0.00000000000000));
#156=DIRECTION('',(-0.994774695249202,0.00000000000000,-0.102094591883494));
#157=DIRECTION('',(-0.102094591883494,-0.00000000000000,0.994774695249202));
#158=AXIS2_PLACEMENT_3D('',#155,#156,#157);
#159=PLANE('',#158);
#160=ADVANCED_FACE('',(#154),#159,.T.);
#161=CARTESIAN_POINT('',(3.01404756546021,10.7164371126524,-0.216937162243495));
#162=VERTEX_POINT('',#161);
#163=CARTESIAN_POINT('',(3.01404756546021,10.7164371126524,-0.216937162243495));
#164=DIRECTION('',(1.00000000000000,0.00000000000000,0.00000000000000));
#165=VECTOR('',#164,1.00000000000000);
#166=LINE('',#163,#165);
#167=EDGE_CURVE('',#131,#162,#166,.T.);
#168=ORIENTED_EDGE('',*,*,#167,.T.);
#169=CARTESIAN_POINT('',(3.01404756546021,4.71643711265243,-0.216937162243495));
#170=VERTEX_POINT('',#169);
#171=CARTESIAN_POINT('',(3.01404756546021,4.71643711265243,-0.216937162243495));
#172=DIRECTION('',(0.00000000000000,1.00000000000000,0.00000000000000));
#173=VECTOR('',#172,1.00000000000000);
#174=LINE('',#171,#173);
#175=EDGE_CURVE('',#170,#162,#174,.T.);
#176=ORIENTED_EDGE('',*,*,#175,.F.);
#177=CARTESIAN_POINT('',(3.01404756546021,4.71643711265243,-0.216937162243495));
#178=DIRECTION('',(-1.00000000000000,0.00000000000000,0.00000000000000));
#179=VECTOR('',#178,1.00000000000000);
#180=LINE('',#177,#179);
#181=EDGE_CURVE('',#170,#139,#180,.T.);
#182=ORIENTED_EDGE('',*,*,#181,.T.);
#183=ORIENTED_EDGE('',*,*,#144,.T.);
#184=EDGE_LOOP('',(#168,#176,#182,#183));
#185=FACE_OUTER_BOUND('',#184,.T.);
#186=CARTESIAN_POINT('',(2.99896877418050,4.71643711265243,-0.216937162243495));
#187=DIRECTION('',(0.00000000000000,0.00000000000000,-1.00000000000000));
#188=DIRECTION('',(-1.00000000000000,0.00000000000000,0.00000000000000));
#189=AXIS2_PLACEMENT_3D('',#186,#187,#188);
#190=PLANE('',#189);
#191=ADVANCED_FACE('',(#185),#190,.T.);
#192=CARTESIAN_POINT('',(2.96920432460273,10.7164371126524,0.220000000000000));
#193=VERTEX_POINT('',#192);
#194=CARTESIAN_POINT('',(2.96920432460273,10.7164371126524,0.220000000000000));
#195=DIRECTION('',(-0.102094591883493,0.00000000000000,0.994774695249202));
#196=VECTOR('',#195,1.00000000000000);
#197=LINE('',#194,#196);
#198=EDGE_CURVE('',#162,#193,#197,.T.);
#199=ORIENTED_EDGE('',*,*,#198,.T.);
#200=CARTESIAN_POINT('',(2.96920432460273,4.71643711265243,0.220000000000000));
#201=VERTEX_POINT('',#200);
#202=CARTESIAN_POINT('',(2.96920432460273,4.71643711265243,0.220000000000000));
#203=DIRECTION('',(0.00000000000000,1.00000000000000,0.00000000000000));
#204=VECTOR('',#203,1.00000000000000);
#205=LINE('',#202,#204);
#206=EDGE_CURVE('',#201,#193,#205,.T.);
#207=ORIENTED_EDGE('',*,*,#206,.F.);
#208=CARTESIAN_POINT('',(2.96920432460273,4.71643711265243,0.220000000000000));
#209=DIRECTION('',(0.102094591883493,0.00000000000000,-0.994774695249202));
#210=VECTOR('',#209,1.00000000000000);
#211=LINE('',#208,#210);
#212=EDGE_CURVE('',#201,#170,#211,.T.);
#213=ORIENTED_EDGE('',*,*,#212,.T.);
#214=ORIENTED_EDGE('',*,*,#175,.T.);
#215=EDGE_LOOP('',(#199,#207,#213,#214));
#216=FACE_OUTER_BOUND('',#215,.T.);
#217=CARTESIAN_POINT('',(2.99162594503147,4.71643711265243,0.00153141887825248));
#218=DIRECTION('',(0.994774695249202,-0.00000000000000,0.102094591883493));
#219=DIRECTION('',(0.102094591883493,0.00000000000000,-0.994774695249202));
#220=AXIS2_PLACEMENT_3D('',#217,#218,#219);
#221=PLANE('',#220);
#222=ADVANCED_FACE('',(#216),#221,.T.);
#223=CARTESIAN_POINT('',(2.99904756546021,10.7164371126524,0.253062837756506));
#224=VERTEX_POINT('',#223);
#225=CARTESIAN_POINT('',(2.99904756546021,10.7164371126524,0.223062837756506));
#226=DIRECTION('',(0.00000000000000,1.00000000000000,-6.12323399573677E-17));
#227=DIRECTION('',(1.00000000000000,0.00000000000000,0.00000000000000));
#228=AXIS2_PLACEMENT_3D('',#225,#226,#227);
#229=CIRCLE('',#228,0.0300000000000004);
#230=EDGE_CURVE('',#193,#224,#229,.T.);
#231=ORIENTED_EDGE('',*,*,#230,.T.);
#232=CARTESIAN_POINT('',(2.99904756546021,4.71643711265243,0.253062837756506));
#233=VERTEX_POINT('',#232);
#234=CARTESIAN_POINT('',(2.99904756546021,4.71643711265243,0.253062837756506));
#235=DIRECTION('',(0.00000000000000,1.00000000000000,0.00000000000000));
#236=VECTOR('',#235,1.00000000000000);
#237=LINE('',#234,#236);
#238=EDGE_CURVE('',#233,#224,#237,.T.);
#239=ORIENTED_EDGE('',*,*,#238,.F.);
#240=CARTESIAN_POINT('',(2.99904756546021,4.71643711265243,0.223062837756506));
#241=DIRECTION('',(0.00000000000000,-1.00000000000000,6.12323399573677E-17));
#242=DIRECTION('',(1.00000000000000,0.00000000000000,0.00000000000000));
#243=AXIS2_PLACEMENT_3D('',#240,#241,#242);
#244=CIRCLE('',#243,0.0300000000000004);
#245=EDGE_CURVE('',#233,#201,#244,.T.);
#246=ORIENTED_EDGE('',*,*,#245,.T.);
#247=ORIENTED_EDGE('',*,*,#206,.T.);
#248=EDGE_LOOP('',(#231,#239,#246,#247));
#249=FACE_OUTER_BOUND('',#248,.T.);
#250=CARTESIAN_POINT('',(2.99904756546021,4.71643711265243,0.223062837756506));
#251=DIRECTION('',(0.00000000000000,1.00000000000000,0.00000000000000));
#252=DIRECTION('',(1.00000000000000,-0.00000000000000,0.00000000000000));
#253=AXIS2_PLACEMENT_3D('',#250,#251,#252);
#254=CYLINDRICAL_SURFACE('',#253,0.0300000000000004);
#255=ADVANCED_FACE('',(#249),#254,.F.);
#256=CARTESIAN_POINT('',(3.05904756546020,10.7164371126524,0.253062837756505));
#257=VERTEX_POINT('',#256);
#258=CARTESIAN_POINT('',(3.02904756546021,10.7164371126524,0.253062837756505));
#259=DIRECTION('',(1.00000000000000,0.00000000000000,0.00000000000000));
#260=VECTOR('',#259,1.00000000000000);
#261=LINE('',#258,#260);
#262=EDGE_CURVE('',#224,#257,#261,.T.);
#263=ORIENTED_EDGE('',*,*,#262,.T.);
#264=CARTESIAN_POINT('',(3.05904756546020,4.71643711265243,0.253062837756505));
#265=VERTEX_POINT('',#264);
#266=CARTESIAN_POINT('',(3.05904756546020,4.71643711265243,0.253062837756505));
#267=DIRECTION('',(0.00000000000000,1.00000000000000,0.00000000000000));
#268=VECTOR('',#267,1.00000000000000);
#269=LINE('',#266,#268);
#270=EDGE_CURVE('',#265,#257,#269,.T.);
#271=ORIENTED_EDGE('',*,*,#270,.F.);
#272=CARTESIAN_POINT('',(3.02904756546021,4.71643711265243,0.253062837756505));
#273=DIRECTION('',(1.00000000000000,0.00000000000000,0.00000000000000));
#274=VECTOR('',#273,1.00000000000000);
#275=LINE('',#272,#274);
#276=EDGE_CURVE('',#233,#265,#275,.T.);
#277=ORIENTED_EDGE('',*,*,#276,.F.);
#278=ORIENTED_EDGE('',*,*,#238,.T.);
#279=EDGE_LOOP('',(#263,#271,#277,#278));
#280=FACE_OUTER_BOUND('',#279,.T.);
#281=CARTESIAN_POINT('',(3.02904756546021,4.71643711265243,0.253062837756505));
#282=DIRECTION('',(0.00000000000000,0.00000000000000,-1.00000000000000));
#283=DIRECTION('',(-1.00000000000000,-0.00000000000000,-0.00000000000000));
#284=AXIS2_PLACEMENT_3D('',#281,#282,#283);
#285=PLANE('',#284);
#286=ADVANCED_FACE('',(#280),#285,.T.);
#287=CARTESIAN_POINT('',(3.08889080631768,10.7164371126524,0.220000000000000));
#288=VERTEX_POINT('',#287);
#289=CARTESIAN_POINT('',(3.05904756546020,10.7164371126524,0.223062837756506));
#290=DIRECTION('',(0.00000000000000,1.00000000000000,-6.12323399573677E-17));
#291=DIRECTION('',(1.00000000000000,0.00000000000000,0.00000000000000));
#292=AXIS2_PLACEMENT_3D('',#289,#290,#291);
#293=CIRCLE('',#292,0.0300000000000004);
#294=EDGE_CURVE('',#257,#288,#293,.T.);
#295=ORIENTED_EDGE('',*,*,#294,.T.);
#296=CARTESIAN_POINT('',(3.08889080631768,4.71643711265243,0.220000000000000));
#297=VERTEX_POINT('',#296);
#298=CARTESIAN_POINT('',(3.08889080631768,4.71643711265243,0.220000000000000));
#299=DIRECTION('',(0.00000000000000,1.00000000000000,0.00000000000000));
#300=VECTOR('',#299,1.00000000000000);
#301=LINE('',#298,#300);
#302=EDGE_CURVE('',#297,#288,#301,.T.);
#303=ORIENTED_EDGE('',*,*,#302,.F.);
#304=CARTESIAN_POINT('',(3.05904756546020,4.71643711265243,0.223062837756506));
#305=DIRECTION('',(0.00000000000000,-1.00000000000000,6.12323399573677E-17));
#306=DIRECTION('',(1.00000000000000,0.00000000000000,0.00000000000000));
#307=AXIS2_PLACEMENT_3D('',#304,#305,#306);
#308=CIRCLE('',#307,0.0300000000000004);
#309=EDGE_CURVE('',#297,#265,#308,.T.);
#310=ORIENTED_EDGE('',*,*,#309,.T.);
#311=ORIENTED_EDGE('',*,*,#270,.T.);
#312=EDGE_LOOP('',(#295,#303,#310,#311));
#313=FACE_OUTER_BOUND('',#312,.T.);
#314=CARTESIAN_POINT('',(3.05904756546020,4.71643711265243,0.223062837756506));
#315=DIRECTION('',(0.00000000000000,1.00000000000000,0.00000000000000));
#316=DIRECTION('',(-0.742325599681005,0.00000000000000,-0.670039330232365));
#317=AXIS2_PLACEMENT_3D('',#314,#315,#316);
#318=CYLINDRICAL_SURFACE('',#317,0.0300000000000004);
#319=ADVANCED_FACE('',(#313),#318,.F.);
#320=CARTESIAN_POINT('',(3.04404756546021,10.7164371126524,-0.216937162243495));
#321=VERTEX_POINT('',#320);
#322=CARTESIAN_POINT('',(3.08889080631768,10.7164371126524,0.220000000000000));
#323=DIRECTION('',(-0.102094591883493,0.00000000000000,-0.994774695249202));
#324=VECTOR('',#323,1.00000000000000);
#325=LINE('',#322,#324);
#326=EDGE_CURVE('',#288,#321,#325,.T.);
#327=ORIENTED_EDGE('',*,*,#326,.T.);
#328=CARTESIAN_POINT('',(3.04404756546021,4.71643711265243,-0.216937162243495));
#329=VERTEX_POINT('',#328);
#330=CARTESIAN_POINT('',(3.04404756546021,4.71643711265243,-0.216937162243495));
#331=DIRECTION('',(0.00000000000000,1.00000000000000,0.00000000000000));
#332=VECTOR('',#331,1.00000000000000);
#333=LINE('',#330,#332);
#334=EDGE_CURVE('',#329,#321,#333,.T.);
#335=ORIENTED_EDGE('',*,*,#334,.F.);
#336=CARTESIAN_POINT('',(3.08889080631768,4.71643711265243,0.220000000000000));
#337=DIRECTION('',(-0.102094591883493,0.00000000000000,-0.994774695249202));
#338=VECTOR('',#337,1.00000000000000);
#339=LINE('',#336,#338);
#340=EDGE_CURVE('',#297,#329,#339,.T.);
#341=ORIENTED_EDGE('',*,*,#340,.F.);
#342=ORIENTED_EDGE('',*,*,#302,.T.);
#343=EDGE_LOOP('',(#327,#335,#341,#342));
#344=FACE_OUTER_BOUND('',#343,.T.);
#345=CARTESIAN_POINT('',(3.06646918588894,4.71643711265243,0.00153141887825248));
#346=DIRECTION('',(-0.994774695249202,0.00000000000000,0.102094591883493));
#347=DIRECTION('',(0.102094591883493,-0.00000000000000,0.994774695249202));
#348=AXIS2_PLACEMENT_3D('',#345,#346,#347);
#349=PLANE('',#348);
#350=ADVANCED_FACE('',(#344),#349,.T.);
#351=CARTESIAN_POINT('',(3.07420514801963,10.7164371126524,-0.216937162243495));
#352=VERTEX_POINT('',#351);
#353=CARTESIAN_POINT('',(3.04404756546021,10.7164371126524,-0.216937162243495));
#354=DIRECTION('',(1.00000000000000,0.00000000000000,0.00000000000000));
#355=VECTOR('',#354,1.00000000000000);
#356=LINE('',#353,#355);
#357=EDGE_CURVE('',#321,#352,#356,.T.);
#358=ORIENTED_EDGE('',*,*,#357,.T.);
#359=CARTESIAN_POINT('',(3.07420514801963,4.71643711265243,-0.216937162243495));
#360=VERTEX_POINT('',#359);
#361=CARTESIAN_POINT('',(3.07420514801963,4.71643711265243,-0.216937162243495));
#362=DIRECTION('',(0.00000000000000,1.00000000000000,0.00000000000000));
#363=VECTOR('',#362,1.00000000000000);
#364=LINE('',#361,#363);
#365=EDGE_CURVE('',#360,#352,#364,.T.);
#366=ORIENTED_EDGE('',*,*,#365,.F.);
#367=CARTESIAN_POINT('',(3.04404756546021,4.71643711265243,-0.216937162243495));
#368=DIRECTION('',(1.00000000000000,0.00000000000000,0.00000000000000));
#369=VECTOR('',#368,1.00000000000000);
#370=LINE('',#367,#369);
#371=EDGE_CURVE('',#329,#360,#370,.T.);
#372=ORIENTED_EDGE('',*,*,#371,.F.);
#373=ORIENTED_EDGE('',*,*,#334,.T.);
#374=EDGE_LOOP('',(#358,#366,#372,#373));
#375=FACE_OUTER_BOUND('',#374,.T.);
#376=CARTESIAN_POINT('',(3.05912635673992,4.71643711265243,-0.216937162243495));
#377=DIRECTION('',(0.00000000000000,0.00000000000000,-1.00000000000000));
#378=DIRECTION('',(-1.00000000000000,-0.00000000000000,-0.00000000000000));
#379=AXIS2_PLACEMENT_3D('',#376,#377,#378);
#380=PLANE('',#379);
#381=ADVANCED_FACE('',(#375),#380,.T.);
#382=CARTESIAN_POINT('',(3.11873404717516,10.7164371126524,0.216937162243495));
#383=DIRECTION('',(0.102094591883494,0.00000000000000,0.994774695249202));
#384=VECTOR('',#383,1.00000000000000);
#385=LINE('',#382,#384);
#386=EDGE_CURVE('',#352,#25,#385,.T.);
#387=ORIENTED_EDGE('',*,*,#386,.T.);
#388=ORIENTED_EDGE('',*,*,#56,.F.);
#389=CARTESIAN_POINT('',(3.11873404717516,4.71643711265243,0.216937162243495));
#390=DIRECTION('',(-0.102094591883494,0.00000000000000,-0.994774695249202));
#391=VECTOR('',#390,1.00000000000000);
#392=LINE('',#389,#391);
#393=EDGE_CURVE('',#44,#360,#392,.T.);
#394=ORIENTED_EDGE('',*,*,#393,.T.);
#395=ORIENTED_EDGE('',*,*,#365,.T.);
#396=EDGE_LOOP('',(#387,#388,#394,#395));
#397=FACE_OUTER_BOUND('',#396,.T.);
#398=CARTESIAN_POINT('',(3.09646959759739,4.71643711265243,0.00000000000000));
#399=DIRECTION('',(0.994774695249202,0.00000000000000,-0.102094591883494));
#400=DIRECTION('',(-0.102094591883494,0.00000000000000,-0.994774695249202));
#401=AXIS2_PLACEMENT_3D('',#398,#399,#400);
#402=PLANE('',#401);
#403=ADVANCED_FACE('',(#397),#402,.T.);
#404=ORIENTED_EDGE('',*,*,#33,.F.);
#405=ORIENTED_EDGE('',*,*,#386,.F.);
#406=ORIENTED_EDGE('',*,*,#357,.F.);
#407=ORIENTED_EDGE('',*,*,#326,.F.);
#408=ORIENTED_EDGE('',*,*,#294,.F.);
#409=ORIENTED_EDGE('',*,*,#262,.F.);
#410=ORIENTED_EDGE('',*,*,#230,.F.);
#411=ORIENTED_EDGE('',*,*,#198,.F.);
#412=ORIENTED_EDGE('',*,*,#167,.F.);
#413=ORIENTED_EDGE('',*,*,#136,.F.);
#414=ORIENTED_EDGE('',*,*,#104,.F.);
#415=ORIENTED_EDGE('',*,*,#72,.F.);
#416=EDGE_LOOP('',(#404,#405,#406,#407,#408,#409,#410,#411,#412,#413,#414,#415));
#417=FACE_OUTER_BOUND('',#416,.T.);
#418=CARTESIAN_POINT('',(3.10482655874641,10.7164371126524,0.0814273638480958));
#419=DIRECTION('',(0.00000000000000,1.00000000000000,0.00000000000000));
#420=DIRECTION('',(-1.00000000000000,0.00000000000000,0.00000000000000));
#421=AXIS2_PLACEMENT_3D('',#418,#419,#420);
#422=PLANE('',#421);
#423=ADVANCED_FACE('',(#417),#422,.T.);
#424=ORIENTED_EDGE('',*,*,#393,.F.);
#425=ORIENTED_EDGE('',*,*,#50,.T.);
#426=ORIENTED_EDGE('',*,*,#86,.F.);
#427=ORIENTED_EDGE('',*,*,#119,.T.);
#428=ORIENTED_EDGE('',*,*,#150,.T.);
#429=ORIENTED_EDGE('',*,*,#181,.F.);
#430=ORIENTED_EDGE('',*,*,#212,.F.);
#431=ORIENTED_EDGE('',*,*,#245,.F.);
#432=ORIENTED_EDGE('',*,*,#276,.T.);
#433=ORIENTED_EDGE('',*,*,#309,.F.);
#434=ORIENTED_EDGE('',*,*,#340,.T.);
#435=ORIENTED_EDGE('',*,*,#371,.T.);
#436=EDGE_LOOP('',(#424,#425,#426,#427,#428,#429,#430,#431,#432,#433,#434,#435));
#437=FACE_OUTER_BOUND('',#436,.T.);
#438=CARTESIAN_POINT('',(3.10482655874641,4.71643711265243,0.0814273638480958));
#439=DIRECTION('',(0.00000000000000,1.00000000000000,0.00000000000000));
#440=DIRECTION('',(-1.00000000000000,0.00000000000000,0.00000000000000));
#441=AXIS2_PLACEMENT_3D('',#438,#439,#440);
#442=PLANE('',#441);
#443=ADVANCED_FACE('',(#437),#442,.F.);
#444=CLOSED_SHELL('',(#65,#96,#129,#160,#191,#222,#255,#286,#319,#350,#381,#403,#423,#443));
#445=MANIFOLD_SOLID_BREP('',#444);
#446=COLOUR_RGB('',1.00000000000000,0.00000000000000,0.00000000000000);
#447=FILL_AREA_STYLE_COLOUR('',#446);
#448=FILL_AREA_STYLE('',(#447));
#449=SURFACE_STYLE_FILL_AREA(#448);
#450=SURFACE_SIDE_STYLE('',(#449));
#451=SURFACE_STYLE_USAGE(.BOTH.,#450);
#452=PRESENTATION_STYLE_ASSIGNMENT((#451));
#453=STYLED_ITEM('',(#452),#445);
#454=ADVANCED_BREP_SHAPE_REPRESENTATION('',(#445,#23),#18);
#455=PRODUCT('', '', ' ',(#2));
#456=PRODUCT_DEFINITION_FORMATION_WITH_SPECIFIED_SOURCE (' ', ' ', #455, .NOT_KNOWN.) ;
#457=PRODUCT_CATEGORY('part','') ;
#458=PRODUCT_RELATED_PRODUCT_CATEGORY('detail', ' ', (#455)) ;
#459=PRODUCT_CATEGORY_RELATIONSHIP(' ', ' ', #457, #458);
#460=PRODUCT_DEFINITION('', '', #456, #1);
#461=PRODUCT_DEFINITION_SHAPE('NONE', 'NONE', #460);
#462=SHAPE_DEFINITION_REPRESENTATION(#461, #454);
#463=PRESENTATION_LAYER_ASSIGNMENT('1','Unnamed [1]',(#445));
#464=MECHANICAL_DESIGN_GEOMETRIC_PRESENTATION_REPRESENTATION('',(#453), #18);
ENDSEC;
END-ISO-10303-21;
