ISO-10303-21;
HEADER;
FILE_DESCRIPTION((''),'2;1');
FILE_NAME('C:/Program Files/Kubotek/KeyCreatorPro.2021.SP0/STEP/SG1659.STP', '2021-03-03T21:05:14',(''), (''), 'KCM Version 2.0.6974.6974', 'KeyCreator Pro', '');
FILE_SCHEMA(('AUTOMOTIVE_DESIGN'));
ENDSEC;
DATA;
#1=PRODUCT_DEFINITION_CONTEXT('',#4,'design');
#2=PRODUCT_CONTEXT('',#4,'mechanical');
#3=APPLICATION_PROTOCOL_DEFINITION('International Standard','automotive_design',2001,#4);
#4=APPLICATION_CONTEXT('automotive design');
#10=DIMENSIONAL_EXPONENTS(1.0,0.0,0.0,0.0,0.0,0.0,0.0);
#11=DIMENSIONAL_EXPONENTS(0.0,0.0,0.0,0.0,0.0,0.0,0.0);
#12=(NAMED_UNIT(#10)LENGTH_UNIT()SI_UNIT(.MILLI.,.METRE.));
#13=(NAMED_UNIT(#11)PLANE_ANGLE_UNIT()SI_UNIT($,.RADIAN.));
#14=(NAMED_UNIT(#11)SOLID_ANGLE_UNIT()SI_UNIT($,.STERADIAN.));
#15=LENGTH_MEASURE_WITH_UNIT(LENGTH_MEASURE(25.4),#12);
#16= (CONVERSION_BASED_UNIT('INCH',#15)LENGTH_UNIT()NAMED_UNIT(#10));
#17=UNCERTAINTY_MEASURE_WITH_UNIT(LENGTH_MEASURE(1.0E-006),#16,'','');
#18=(GEOMETRIC_REPRESENTATION_CONTEXT(3)GLOBAL_UNCERTAINTY_ASSIGNED_CONTEXT((#17))GLOBAL_UNIT_ASSIGNED_CONTEXT((#16,#13,#14))REPRESENTATION_CONTEXT('NONE','WORKSPACE'));
#20=CARTESIAN_POINT('',(0.00000000000000,0.00000000000000,0.00000000000000));
#21=DIRECTION('',(0.00000000000000,0.00000000000000,1.00000000000000));
#22=DIRECTION('',(1.00000000000000,0.00000000000000,0.00000000000000));
#23=AXIS2_PLACEMENT_3D('',#20,#21,#22);
#24=CARTESIAN_POINT('',(14.6789909766169,5.49818548522224,-1.09231808567185));
#25=VERTEX_POINT('',#24);
#26=CARTESIAN_POINT('',(14.6257931814877,5.49818548522224,-1.00764226507713));
#27=VERTEX_POINT('',#26);
#28=CARTESIAN_POINT('',(14.6523920790523,5.49818548522224,-1.04998017537448));
#29=DIRECTION('',(0.00000000000000,1.00000000000000,-6.12323399573677E-17));
#30=DIRECTION('',(1.00000000000000,0.00000000000000,0.00000000000000));
#31=AXIS2_PLACEMENT_3D('',#28,#29,#30);
#32=CIRCLE('',#31,0.0500000000000000);
#33=EDGE_CURVE('',#25,#27,#32,.T.);
#34=ORIENTED_EDGE('',*,*,#33,.T.);
#35=CARTESIAN_POINT('',(14.6257931814877,11.4981854852222,-1.00764226507713));
#36=VERTEX_POINT('',#35);
#37=CARTESIAN_POINT('',(14.6257931814877,8.49818548522224,-1.00764226507713));
#38=DIRECTION('',(0.00000000000000,1.00000000000000,0.00000000000000));
#39=VECTOR('',#38,1.00000000000000);
#40=LINE('',#37,#39);
#41=EDGE_CURVE('',#27,#36,#40,.T.);
#42=ORIENTED_EDGE('',*,*,#41,.T.);
#43=CARTESIAN_POINT('',(14.6789909766169,11.4981854852222,-1.09231808567185));
#44=VERTEX_POINT('',#43);
#45=CARTESIAN_POINT('',(14.6523920790523,11.4981854852222,-1.04998017537448));
#46=DIRECTION('',(0.00000000000000,-1.00000000000000,6.12323399573677E-17));
#47=DIRECTION('',(1.00000000000000,0.00000000000000,0.00000000000000));
#48=AXIS2_PLACEMENT_3D('',#45,#46,#47);
#49=CIRCLE('',#48,0.0500000000000000);
#50=EDGE_CURVE('',#36,#44,#49,.T.);
#51=ORIENTED_EDGE('',*,*,#50,.T.);
#52=CARTESIAN_POINT('',(14.6789909766169,8.49818548522224,-1.09231808567185));
#53=DIRECTION('',(0.00000000000000,-1.00000000000000,0.00000000000000));
#54=VECTOR('',#53,1.00000000000000);
#55=LINE('',#52,#54);
#56=EDGE_CURVE('',#44,#25,#55,.T.);
#57=ORIENTED_EDGE('',*,*,#56,.T.);
#58=EDGE_LOOP('',(#34,#42,#51,#57));
#59=FACE_OUTER_BOUND('',#58,.T.);
#60=CARTESIAN_POINT('',(14.6523920790523,8.49818548522224,-1.04998017537448));
#61=DIRECTION('',(0.00000000000000,-1.00000000000000,0.00000000000000));
#62=DIRECTION('',(1.00000000000000,0.00000000000000,0.00000000000000));
#63=AXIS2_PLACEMENT_3D('',#60,#61,#62);
#64=CYLINDRICAL_SURFACE('',#63,0.0500000000000000);
#65=ADVANCED_FACE('',(#59),#64,.T.);
#66=CARTESIAN_POINT('',(13.3577104952227,5.49818548522224,-1.00639866126445));
#67=VERTEX_POINT('',#66);
#68=CARTESIAN_POINT('',(13.9927394194498,5.49818548522224,0.00000000000000));
#69=DIRECTION('',(0.00000000000000,-1.00000000000000,6.12323399573677E-17));
#70=DIRECTION('',(1.00000000000000,0.00000000000000,0.00000000000000));
#71=AXIS2_PLACEMENT_3D('',#68,#69,#70);
#72=CIRCLE('',#71,1.19000000000000);
#73=EDGE_CURVE('',#27,#67,#72,.T.);
#74=ORIENTED_EDGE('',*,*,#73,.T.);
#75=CARTESIAN_POINT('',(13.3577104952227,11.4981854852222,-1.00639866126445));
#76=VERTEX_POINT('',#75);
#77=CARTESIAN_POINT('',(13.3577104952227,8.49818548522224,-1.00639866126445));
#78=DIRECTION('',(0.00000000000000,-1.00000000000000,0.00000000000000));
#79=VECTOR('',#78,1.00000000000000);
#80=LINE('',#77,#79);
#81=EDGE_CURVE('',#76,#67,#80,.T.);
#82=ORIENTED_EDGE('',*,*,#81,.F.);
#83=CARTESIAN_POINT('',(13.9927394194498,11.4981854852222,0.00000000000000));
#84=DIRECTION('',(0.00000000000000,1.00000000000000,-6.12323399573677E-17));
#85=DIRECTION('',(1.00000000000000,0.00000000000000,0.00000000000000));
#86=AXIS2_PLACEMENT_3D('',#83,#84,#85);
#87=CIRCLE('',#86,1.19000000000000);
#88=EDGE_CURVE('',#76,#36,#87,.T.);
#89=ORIENTED_EDGE('',*,*,#88,.T.);
#90=ORIENTED_EDGE('',*,*,#41,.F.);
#91=EDGE_LOOP('',(#74,#82,#89,#90));
#92=FACE_OUTER_BOUND('',#91,.T.);
#93=CARTESIAN_POINT('',(13.9927394194498,8.49818548522224,0.00000000000000));
#94=DIRECTION('',(0.00000000000000,-1.00000000000000,0.00000000000000));
#95=DIRECTION('',(-0.000980695681855452,0.00000000000000,-0.999999519117874));
#96=AXIS2_PLACEMENT_3D('',#93,#94,#95);
#97=CYLINDRICAL_SURFACE('',#96,1.19000000000000);
#98=ADVANCED_FACE('',(#92),#97,.F.);
#99=CARTESIAN_POINT('',(13.3043467200775,5.49818548522224,-1.09096997733709));
#100=VERTEX_POINT('',#99);
#101=CARTESIAN_POINT('',(13.3310286076501,5.49818548522224,-1.04868431930077));
#102=DIRECTION('',(0.00000000000000,1.00000000000000,-6.12323399573677E-17));
#103=DIRECTION('',(1.00000000000000,0.00000000000000,0.00000000000000));
#104=AXIS2_PLACEMENT_3D('',#101,#102,#103);
#105=CIRCLE('',#104,0.0500000000000000);
#106=EDGE_CURVE('',#67,#100,#105,.T.);
#107=ORIENTED_EDGE('',*,*,#106,.T.);
#108=CARTESIAN_POINT('',(13.3043467200775,11.4981854852222,-1.09096997733709));
#109=VERTEX_POINT('',#108);
#110=CARTESIAN_POINT('',(13.3043467200775,8.49818548522224,-1.09096997733709));
#111=DIRECTION('',(0.00000000000000,1.00000000000000,0.00000000000000));
#112=VECTOR('',#111,1.00000000000000);
#113=LINE('',#110,#112);
#114=EDGE_CURVE('',#100,#109,#113,.T.);
#115=ORIENTED_EDGE('',*,*,#114,.T.);
#116=CARTESIAN_POINT('',(13.3310286076501,11.4981854852222,-1.04868431930077));
#117=DIRECTION('',(0.00000000000000,-1.00000000000000,6.12323399573677E-17));
#118=DIRECTION('',(1.00000000000000,0.00000000000000,0.00000000000000));
#119=AXIS2_PLACEMENT_3D('',#116,#117,#118);
#120=CIRCLE('',#119,0.0500000000000000);
#121=EDGE_CURVE('',#109,#76,#120,.T.);
#122=ORIENTED_EDGE('',*,*,#121,.T.);
#123=ORIENTED_EDGE('',*,*,#81,.T.);
#124=EDGE_LOOP('',(#107,#115,#122,#123));
#125=FACE_OUTER_BOUND('',#124,.T.);
#126=CARTESIAN_POINT('',(13.3310286076501,8.49818548522224,-1.04868431930077));
#127=DIRECTION('',(0.00000000000000,-1.00000000000000,0.00000000000000));
#128=DIRECTION('',(-0.845713160726435,0.00000000000000,0.533637751451398));
#129=AXIS2_PLACEMENT_3D('',#126,#127,#128);
#130=CYLINDRICAL_SURFACE('',#129,0.0500000000000000);
#131=ADVANCED_FACE('',(#125),#130,.T.);
#132=CARTESIAN_POINT('',(13.9927394194498,5.49818548522224,0.00000000000000));
#133=DIRECTION('',(0.00000000000000,1.00000000000000,-6.12323399573676E-17));
#134=DIRECTION('',(1.00000000000000,0.00000000000000,0.00000000000000));
#135=AXIS2_PLACEMENT_3D('',#132,#133,#134);
#136=CIRCLE('',#135,1.29000000000000);
#137=EDGE_CURVE('',#100,#25,#136,.T.);
#138=ORIENTED_EDGE('',*,*,#137,.T.);
#139=ORIENTED_EDGE('',*,*,#56,.F.);
#140=CARTESIAN_POINT('',(13.9927394194498,11.4981854852222,0.00000000000000));
#141=DIRECTION('',(0.00000000000000,-1.00000000000000,6.12323399573676E-17));
#142=DIRECTION('',(1.00000000000000,0.00000000000000,0.00000000000000));
#143=AXIS2_PLACEMENT_3D('',#140,#141,#142);
#144=CIRCLE('',#143,1.29000000000000);
#145=EDGE_CURVE('',#44,#109,#144,.T.);
#146=ORIENTED_EDGE('',*,*,#145,.T.);
#147=ORIENTED_EDGE('',*,*,#114,.F.);
#148=EDGE_LOOP('',(#138,#139,#146,#147));
#149=FACE_OUTER_BOUND('',#148,.T.);
#150=CARTESIAN_POINT('',(13.9927394194498,8.49818548522224,0.00000000000000));
#151=DIRECTION('',(0.00000000000000,-1.00000000000000,0.00000000000000));
#152=DIRECTION('',(-0.000980695681853936,0.00000000000000,-0.999999519117874));
#153=AXIS2_PLACEMENT_3D('',#150,#151,#152);
#154=CYLINDRICAL_SURFACE('',#153,1.29000000000000);
#155=ADVANCED_FACE('',(#149),#154,.T.);
#156=ORIENTED_EDGE('',*,*,#33,.F.);
#157=ORIENTED_EDGE('',*,*,#137,.F.);
#158=ORIENTED_EDGE('',*,*,#106,.F.);
#159=ORIENTED_EDGE('',*,*,#73,.F.);
#160=EDGE_LOOP('',(#156,#157,#158,#159));
#161=FACE_OUTER_BOUND('',#160,.T.);
#162=CARTESIAN_POINT('',(14.3427940814736,5.49818548522224,1.24159644554720));
#163=DIRECTION('',(0.00000000000000,-1.00000000000000,0.00000000000000));
#164=DIRECTION('',(1.00000000000000,0.00000000000000,0.00000000000000));
#165=AXIS2_PLACEMENT_3D('',#162,#163,#164);
#166=PLANE('',#165);
#167=ADVANCED_FACE('',(#161),#166,.T.);
#168=ORIENTED_EDGE('',*,*,#121,.F.);
#169=ORIENTED_EDGE('',*,*,#145,.F.);
#170=ORIENTED_EDGE('',*,*,#50,.F.);
#171=ORIENTED_EDGE('',*,*,#88,.F.);
#172=EDGE_LOOP('',(#168,#169,#170,#171));
#173=FACE_OUTER_BOUND('',#172,.T.);
#174=CARTESIAN_POINT('',(14.3427940814736,11.4981854852222,1.24159644554720));
#175=DIRECTION('',(0.00000000000000,-1.00000000000000,0.00000000000000));
#176=DIRECTION('',(1.00000000000000,0.00000000000000,0.00000000000000));
#177=AXIS2_PLACEMENT_3D('',#174,#175,#176);
#178=PLANE('',#177);
#179=ADVANCED_FACE('',(#173),#178,.F.);
#180=CLOSED_SHELL('',(#65,#98,#131,#155,#167,#179));
#181=MANIFOLD_SOLID_BREP('',#180);
#182=COLOUR_RGB('',1.00000000000000,0.00000000000000,0.00000000000000);
#183=FILL_AREA_STYLE_COLOUR('',#182);
#184=FILL_AREA_STYLE('',(#183));
#185=SURFACE_STYLE_FILL_AREA(#184);
#186=SURFACE_SIDE_STYLE('',(#185));
#187=SURFACE_STYLE_USAGE(.BOTH.,#186);
#188=PRESENTATION_STYLE_ASSIGNMENT((#187));
#189=STYLED_ITEM('',(#188),#181);
#190=ADVANCED_BREP_SHAPE_REPRESENTATION('',(#181,#23),#18);
#191=PRODUCT('', '', ' ',(#2));
#192=PRODUCT_DEFINITION_FORMATION_WITH_SPECIFIED_SOURCE (' ', ' ', #191, .NOT_KNOWN.) ;
#193=PRODUCT_CATEGORY('part','') ;
#194=PRODUCT_RELATED_PRODUCT_CATEGORY('detail', ' ', (#191)) ;
#195=PRODUCT_CATEGORY_RELATIONSHIP(' ', ' ', #193, #194);
#196=PRODUCT_DEFINITION('', '', #192, #1);
#197=PRODUCT_DEFINITION_SHAPE('NONE', 'NONE', #196);
#198=SHAPE_DEFINITION_REPRESENTATION(#197, #190);
#199=PRESENTATION_LAYER_ASSIGNMENT('1','Unnamed [1]',(#181));
#200=MECHANICAL_DESIGN_GEOMETRIC_PRESENTATION_REPRESENTATION('',(#189), #18);
ENDSEC;
END-ISO-10303-21;
