ISO-10303-21;
HEADER;
FILE_DESCRIPTION((''),'2;1');
FILE_NAME('C:/Program Files/Kubotek/KeyCreatorPro.2021.SP0/STEP/SG1655.STP', '2021-03-04T13:30:51',(''), (''), 'KCM Version 2.0.6974.6974', 'KeyCreator Pro', '');
FILE_SCHEMA(('AUTOMOTIVE_DESIGN'));
ENDSEC;
DATA;
#1=PRODUCT_DEFINITION_CONTEXT('',#4,'design');
#2=PRODUCT_CONTEXT('',#4,'mechanical');
#3=APPLICATION_PROTOCOL_DEFINITION('International Standard','automotive_design',2001,#4);
#4=APPLICATION_CONTEXT('automotive design');
#10=DIMENSIONAL_EXPONENTS(1.0,0.0,0.0,0.0,0.0,0.0,0.0);
#11=DIMENSIONAL_EXPONENTS(0.0,0.0,0.0,0.0,0.0,0.0,0.0);
#12=(NAMED_UNIT(#10)LENGTH_UNIT()SI_UNIT(.MILLI.,.METRE.));
#13=(NAMED_UNIT(#11)PLANE_ANGLE_UNIT()SI_UNIT($,.RADIAN.));
#14=(NAMED_UNIT(#11)SOLID_ANGLE_UNIT()SI_UNIT($,.STERADIAN.));
#15=LENGTH_MEASURE_WITH_UNIT(LENGTH_MEASURE(25.4),#12);
#16= (CONVERSION_BASED_UNIT('INCH',#15)LENGTH_UNIT()NAMED_UNIT(#10));
#17=UNCERTAINTY_MEASURE_WITH_UNIT(LENGTH_MEASURE(1.0E-006),#16,'','');
#18=(GEOMETRIC_REPRESENTATION_CONTEXT(3)GLOBAL_UNCERTAINTY_ASSIGNED_CONTEXT((#17))GLOBAL_UNIT_ASSIGNED_CONTEXT((#16,#13,#14))REPRESENTATION_CONTEXT('NONE','WORKSPACE'));
#20=CARTESIAN_POINT('',(0.00000000000000,0.00000000000000,0.00000000000000));
#21=DIRECTION('',(0.00000000000000,0.00000000000000,1.00000000000000));
#22=DIRECTION('',(1.00000000000000,0.00000000000000,0.00000000000000));
#23=AXIS2_PLACEMENT_3D('',#20,#21,#22);
#24=CARTESIAN_POINT('',(0.264466174586735,-2.99997711708048,1.49983932491807));
#25=VERTEX_POINT('',#24);
#26=CARTESIAN_POINT('',(-2.79770561265213E-16,-2.99997711708048,-1.52302288291952));
#27=VERTEX_POINT('',#26);
#28=CARTESIAN_POINT('',(0.00000000000000,-2.99997711708048,-2.28829195216725E-05));
#29=DIRECTION('',(0.00000000000000,1.00000000000000,-6.12323399573677E-17));
#30=DIRECTION('',(1.00000000000000,0.00000000000000,0.00000000000000));
#31=AXIS2_PLACEMENT_3D('',#28,#29,#30);
#32=CIRCLE('',#31,1.52300000000000);
#33=EDGE_CURVE('',#25,#27,#32,.T.);
#34=ORIENTED_EDGE('',*,*,#33,.T.);
#35=CARTESIAN_POINT('',(-2.79770561265213E-16,3.00002288291952,-1.52302288291952));
#36=VERTEX_POINT('',#35);
#37=CARTESIAN_POINT('',(-2.79770561265213E-16,2.28829195218012E-05,-1.52302288291952));
#38=DIRECTION('',(0.00000000000000,-1.00000000000000,7.40148683083438E-17));
#39=VECTOR('',#38,1.00000000000000);
#40=LINE('',#37,#39);
#41=EDGE_CURVE('',#36,#27,#40,.T.);
#42=ORIENTED_EDGE('',*,*,#41,.F.);
#43=CARTESIAN_POINT('',(0.264466174586735,3.00002288291952,1.49983932491807));
#44=VERTEX_POINT('',#43);
#45=CARTESIAN_POINT('',(0.00000000000000,3.00002288291952,-2.28829195221165E-05));
#46=DIRECTION('',(0.00000000000000,-1.00000000000000,6.12323399573677E-17));
#47=DIRECTION('',(1.00000000000000,0.00000000000000,0.00000000000000));
#48=AXIS2_PLACEMENT_3D('',#45,#46,#47);
#49=CIRCLE('',#48,1.52300000000000);
#50=EDGE_CURVE('',#36,#44,#49,.T.);
#51=ORIENTED_EDGE('',*,*,#50,.T.);
#52=CARTESIAN_POINT('',(0.264466174586735,2.28829195219863E-05,1.49983932491807));
#53=DIRECTION('',(0.00000000000000,-1.00000000000000,7.40148683083438E-17));
#54=VECTOR('',#53,1.00000000000000);
#55=LINE('',#52,#54);
#56=EDGE_CURVE('',#44,#25,#55,.T.);
#57=ORIENTED_EDGE('',*,*,#56,.T.);
#58=EDGE_LOOP('',(#34,#42,#51,#57));
#59=FACE_OUTER_BOUND('',#58,.T.);
#60=CARTESIAN_POINT('',(0.00000000000000,2.28829195218945E-05,-2.28829195218945E-05));
#61=DIRECTION('',(0.00000000000000,-1.00000000000000,7.40148683083438E-17));
#62=DIRECTION('',(-0.996194698091745,6.45146565210104E-18,0.0871557427476582));
#63=AXIS2_PLACEMENT_3D('',#60,#61,#62);
#64=CYLINDRICAL_SURFACE('',#63,1.52300000000000);
#65=ADVANCED_FACE('',(#59),#64,.T.);
#66=CARTESIAN_POINT('',(-1.62331819091629,-2.99997711708048,-0.0233531508196743));
#67=VERTEX_POINT('',#66);
#68=CARTESIAN_POINT('',(-7.56695029331798E-16,-2.99997711708048,0.105392744132349));
#69=DIRECTION('',(8.65956056235493E-17,1.00000000000000,-1.47827945580917E-16));
#70=DIRECTION('',(2.22044604925031E-16,1.47827945580917E-16,1.00000000000000));
#71=AXIS2_PLACEMENT_3D('',#68,#69,#70);
#72=CIRCLE('',#71,1.62841562705187);
#73=EDGE_CURVE('',#27,#67,#72,.T.);
#74=ORIENTED_EDGE('',*,*,#73,.T.);
#75=CARTESIAN_POINT('',(-1.62331819091629,3.00002288291952,-0.0233531508196748));
#76=VERTEX_POINT('',#75);
#77=CARTESIAN_POINT('',(-1.62331819091629,2.28829195218931E-05,-0.0233531508196745));
#78=DIRECTION('',(0.00000000000000,1.00000000000000,-7.40148683083438E-17));
#79=VECTOR('',#78,1.00000000000000);
#80=LINE('',#77,#79);
#81=EDGE_CURVE('',#67,#76,#80,.T.);
#82=ORIENTED_EDGE('',*,*,#81,.T.);
#83=CARTESIAN_POINT('',(-7.56695029331798E-16,3.00002288291952,0.105392744132348));
#84=DIRECTION('',(-8.65956056235493E-17,-1.00000000000000,1.47827945580917E-16));
#85=DIRECTION('',(2.22044604925031E-16,1.47827945580917E-16,1.00000000000000));
#86=AXIS2_PLACEMENT_3D('',#83,#84,#85);
#87=CIRCLE('',#86,1.62841562705187);
#88=EDGE_CURVE('',#76,#36,#87,.T.);
#89=ORIENTED_EDGE('',*,*,#88,.T.);
#90=ORIENTED_EDGE('',*,*,#41,.T.);
#91=EDGE_LOOP('',(#74,#82,#89,#90));
#92=FACE_OUTER_BOUND('',#91,.T.);
#93=CARTESIAN_POINT('',(-7.56695029331798E-16,2.28829195220420E-05,0.105392744132348));
#94=DIRECTION('',(0.00000000000000,-1.00000000000000,7.40148683083438E-17));
#95=DIRECTION('',(2.22044604925031E-16,7.40148683083438E-17,1.00000000000000));
#96=AXIS2_PLACEMENT_3D('',#93,#94,#95);
#97=CYLINDRICAL_SURFACE('',#96,1.62841562705187);
#98=ADVANCED_FACE('',(#92),#97,.T.);
#99=CARTESIAN_POINT('',(-1.62483149540539,-2.99997711708048,0.0233782183087629));
#100=VERTEX_POINT('',#99);
#101=CARTESIAN_POINT('',(-1.12488334297296,-2.99997711708048,0.0161778794692905));
#102=DIRECTION('',(0.00000000000000,1.00000000000000,-6.12323399573677E-17));
#103=DIRECTION('',(1.00000000000000,0.00000000000000,0.00000000000000));
#104=AXIS2_PLACEMENT_3D('',#101,#102,#103);
#105=CIRCLE('',#104,0.500000000000000);
#106=EDGE_CURVE('',#67,#100,#105,.T.);
#107=ORIENTED_EDGE('',*,*,#106,.T.);
#108=CARTESIAN_POINT('',(-1.62483149540539,3.00002288291952,0.0233782183087626));
#109=VERTEX_POINT('',#108);
#110=CARTESIAN_POINT('',(-1.62483149540539,2.28829195218959E-05,0.0233782183087627));
#111=DIRECTION('',(0.00000000000000,-1.00000000000000,6.12935628178472E-17));
#112=VECTOR('',#111,1.00000000000000);
#113=LINE('',#110,#112);
#114=EDGE_CURVE('',#109,#100,#113,.T.);
#115=ORIENTED_EDGE('',*,*,#114,.F.);
#116=CARTESIAN_POINT('',(-1.12488334297296,3.00002288291952,0.0161778794692901));
#117=DIRECTION('',(0.00000000000000,-1.00000000000000,6.12323399573677E-17));
#118=DIRECTION('',(1.00000000000000,0.00000000000000,0.00000000000000));
#119=AXIS2_PLACEMENT_3D('',#116,#117,#118);
#120=CIRCLE('',#119,0.500000000000000);
#121=EDGE_CURVE('',#109,#76,#120,.T.);
#122=ORIENTED_EDGE('',*,*,#121,.T.);
#123=ORIENTED_EDGE('',*,*,#81,.F.);
#124=EDGE_LOOP('',(#107,#115,#122,#123));
#125=FACE_OUTER_BOUND('',#124,.T.);
#126=CARTESIAN_POINT('',(-1.12488334297296,2.28829195218955E-05,0.0161778794692903));
#127=DIRECTION('',(0.00000000000000,-1.00000000000000,7.40148683083438E-17));
#128=DIRECTION('',(1.00000000000000,0.00000000000000,0.00000000000000));
#129=AXIS2_PLACEMENT_3D('',#126,#127,#128);
#130=CYLINDRICAL_SURFACE('',#129,0.500000000000000);
#131=ADVANCED_FACE('',(#125),#130,.T.);
#132=CARTESIAN_POINT('',(-1.52478277568165,-2.99997711708048,0.0257159395975954));
#133=VERTEX_POINT('',#132);
#134=CARTESIAN_POINT('',(-1.52300611878111,-2.99997711708048,-0.0256702342940352));
#135=VERTEX_POINT('',#134);
#136=CARTESIAN_POINT('',(-1.02485399676963,-2.99997711708048,0.0172769813952612));
#137=DIRECTION('',(0.00000000000000,-1.00000000000000,6.12323399573677E-17));
#138=DIRECTION('',(1.00000000000000,0.00000000000000,0.00000000000000));
#139=AXIS2_PLACEMENT_3D('',#136,#137,#138);
#140=CIRCLE('',#139,0.500000000000000);
#141=EDGE_CURVE('',#133,#135,#140,.T.);
#142=ORIENTED_EDGE('',*,*,#141,.T.);
#143=CARTESIAN_POINT('',(-1.52300611878111,3.00002288291952,-0.0256702342940356));
#144=VERTEX_POINT('',#143);
#145=CARTESIAN_POINT('',(-1.52300611878111,2.28829195218929E-05,-0.0256702342940354));
#146=DIRECTION('',(0.00000000000000,-1.00000000000000,7.40148683083438E-17));
#147=VECTOR('',#146,1.00000000000000);
#148=LINE('',#145,#147);
#149=EDGE_CURVE('',#144,#135,#148,.T.);
#150=ORIENTED_EDGE('',*,*,#149,.F.);
#151=CARTESIAN_POINT('',(-1.52478277568165,3.00002288291952,0.0257159395975950));
#152=VERTEX_POINT('',#151);
#153=CARTESIAN_POINT('',(-1.02485399676963,3.00002288291952,0.0172769813952608));
#154=DIRECTION('',(0.00000000000000,1.00000000000000,-6.12323399573677E-17));
#155=DIRECTION('',(1.00000000000000,0.00000000000000,0.00000000000000));
#156=AXIS2_PLACEMENT_3D('',#153,#154,#155);
#157=CIRCLE('',#156,0.500000000000000);
#158=EDGE_CURVE('',#144,#152,#157,.T.);
#159=ORIENTED_EDGE('',*,*,#158,.T.);
#160=CARTESIAN_POINT('',(-1.52478277568165,2.28829195218961E-05,0.0257159395975952));
#161=DIRECTION('',(0.00000000000000,1.00000000000000,-6.12935628178472E-17));
#162=VECTOR('',#161,1.00000000000000);
#163=LINE('',#160,#162);
#164=EDGE_CURVE('',#133,#152,#163,.T.);
#165=ORIENTED_EDGE('',*,*,#164,.F.);
#166=EDGE_LOOP('',(#142,#150,#159,#165));
#167=FACE_OUTER_BOUND('',#166,.T.);
#168=CARTESIAN_POINT('',(-1.02485399676963,2.28829195218956E-05,0.0172769813952610));
#169=DIRECTION('',(0.00000000000000,-1.00000000000000,7.40148683083438E-17));
#170=DIRECTION('',(1.00000000000000,0.00000000000000,0.00000000000000));
#171=AXIS2_PLACEMENT_3D('',#168,#169,#170);
#172=CYLINDRICAL_SURFACE('',#171,0.500000000000000);
#173=ADVANCED_FACE('',(#167),#172,.F.);
#174=CARTESIAN_POINT('',(-2.61400859278003E-16,-2.99997711708048,-1.42302288291952));
#175=VERTEX_POINT('',#174);
#176=CARTESIAN_POINT('',(-7.06133479152628E-16,-2.99997711708048,0.105632774143021));
#177=DIRECTION('',(-8.65956056235493E-17,-1.00000000000000,1.47827945580917E-16));
#178=DIRECTION('',(2.22044604925031E-16,1.47827945580917E-16,1.00000000000000));
#179=AXIS2_PLACEMENT_3D('',#176,#177,#178);
#180=CIRCLE('',#179,1.52865565706254);
#181=EDGE_CURVE('',#135,#175,#180,.T.);
#182=ORIENTED_EDGE('',*,*,#181,.T.);
#183=CARTESIAN_POINT('',(-2.61400859278003E-16,3.00002288291952,-1.42302288291952));
#184=VERTEX_POINT('',#183);
#185=CARTESIAN_POINT('',(-2.61400859278003E-16,2.28829195218074E-05,-1.42302288291952));
#186=DIRECTION('',(0.00000000000000,1.00000000000000,-7.40148683083438E-17));
#187=VECTOR('',#186,1.00000000000000);
#188=LINE('',#185,#187);
#189=EDGE_CURVE('',#175,#184,#188,.T.);
#190=ORIENTED_EDGE('',*,*,#189,.T.);
#191=CARTESIAN_POINT('',(-7.06133479152628E-16,3.00002288291952,0.105632774143021));
#192=DIRECTION('',(8.65956056235493E-17,1.00000000000000,-1.47827945580917E-16));
#193=DIRECTION('',(2.22044604925031E-16,1.47827945580917E-16,1.00000000000000));
#194=AXIS2_PLACEMENT_3D('',#191,#192,#193);
#195=CIRCLE('',#194,1.52865565706254);
#196=EDGE_CURVE('',#184,#144,#195,.T.);
#197=ORIENTED_EDGE('',*,*,#196,.T.);
#198=ORIENTED_EDGE('',*,*,#149,.T.);
#199=EDGE_LOOP('',(#182,#190,#197,#198));
#200=FACE_OUTER_BOUND('',#199,.T.);
#201=CARTESIAN_POINT('',(-7.06133479152628E-16,2.28829195220333E-05,0.105632774143021));
#202=DIRECTION('',(0.00000000000000,-1.00000000000000,7.40148683083438E-17));
#203=DIRECTION('',(2.22044604925031E-16,7.40148683083438E-17,1.00000000000000));
#204=AXIS2_PLACEMENT_3D('',#201,#202,#203);
#205=CYLINDRICAL_SURFACE('',#204,1.52865565706254);
#206=ADVANCED_FACE('',(#200),#205,.F.);
#207=CARTESIAN_POINT('',(0.247101356820042,-2.99997711708048,1.40135854961685));
#208=VERTEX_POINT('',#207);
#209=CARTESIAN_POINT('',(0.00000000000000,-2.99997711708048,-2.28829195216725E-05));
#210=DIRECTION('',(0.00000000000000,-1.00000000000000,6.12323399573676E-17));
#211=DIRECTION('',(1.00000000000000,0.00000000000000,0.00000000000000));
#212=AXIS2_PLACEMENT_3D('',#209,#210,#211);
#213=CIRCLE('',#212,1.42300000000000);
#214=EDGE_CURVE('',#175,#208,#213,.T.);
#215=ORIENTED_EDGE('',*,*,#214,.T.);
#216=CARTESIAN_POINT('',(0.247101356820042,3.00002288291952,1.40135854961685));
#217=VERTEX_POINT('',#216);
#218=CARTESIAN_POINT('',(0.247101356820042,2.28829195219803E-05,1.40135854961685));
#219=DIRECTION('',(0.00000000000000,1.00000000000000,-7.40148683083438E-17));
#220=VECTOR('',#219,1.00000000000000);
#221=LINE('',#218,#220);
#222=EDGE_CURVE('',#208,#217,#221,.T.);
#223=ORIENTED_EDGE('',*,*,#222,.T.);
#224=CARTESIAN_POINT('',(0.00000000000000,3.00002288291952,-2.28829195221165E-05));
#225=DIRECTION('',(0.00000000000000,1.00000000000000,-6.12323399573676E-17));
#226=DIRECTION('',(1.00000000000000,0.00000000000000,0.00000000000000));
#227=AXIS2_PLACEMENT_3D('',#224,#225,#226);
#228=CIRCLE('',#227,1.42300000000000);
#229=EDGE_CURVE('',#217,#184,#228,.T.);
#230=ORIENTED_EDGE('',*,*,#229,.T.);
#231=ORIENTED_EDGE('',*,*,#189,.F.);
#232=EDGE_LOOP('',(#215,#223,#230,#231));
#233=FACE_OUTER_BOUND('',#232,.T.);
#234=CARTESIAN_POINT('',(0.00000000000000,2.28829195218945E-05,-2.28829195218945E-05));
#235=DIRECTION('',(0.00000000000000,-1.00000000000000,7.40148683083438E-17));
#236=DIRECTION('',(-0.996194698091746,6.45006958288658E-18,0.0871557427476585));
#237=AXIS2_PLACEMENT_3D('',#234,#235,#236);
#238=CYLINDRICAL_SURFACE('',#237,1.42300000000000);
#239=ADVANCED_FACE('',(#233),#238,.F.);
#240=CARTESIAN_POINT('',(0.247101356820042,-2.99997711708048,1.40135854961685));
#241=DIRECTION('',(0.173648177666931,6.02748645266160E-17,0.984807753012208));
#242=VECTOR('',#241,1.00000000000000);
#243=LINE('',#240,#242);
#244=EDGE_CURVE('',#208,#25,#243,.T.);
#245=ORIENTED_EDGE('',*,*,#244,.T.);
#246=ORIENTED_EDGE('',*,*,#56,.F.);
#247=CARTESIAN_POINT('',(0.247101356820042,3.00002288291952,1.40135854961685));
#248=DIRECTION('',(-0.173648177666931,-6.02748645266160E-17,-0.984807753012208));
#249=VECTOR('',#248,1.00000000000000);
#250=LINE('',#247,#249);
#251=EDGE_CURVE('',#44,#217,#250,.T.);
#252=ORIENTED_EDGE('',*,*,#251,.T.);
#253=ORIENTED_EDGE('',*,*,#222,.F.);
#254=EDGE_LOOP('',(#245,#246,#252,#253));
#255=FACE_OUTER_BOUND('',#254,.T.);
#256=CARTESIAN_POINT('',(0.255783765703389,2.28829195219833E-05,1.45059893726746));
#257=DIRECTION('',(-0.984807753012208,1.28525470020017E-17,0.173648177666931));
#258=DIRECTION('',(-0.173648177666931,-6.02748645266160E-17,-0.984807753012208));
#259=AXIS2_PLACEMENT_3D('',#256,#257,#258);
#260=PLANE('',#259);
#261=ADVANCED_FACE('',(#255),#260,.T.);
#262=CARTESIAN_POINT('',(-2.98507657292167E-16,-2.99997711708048,-1.62502288291952));
#263=VERTEX_POINT('',#262);
#264=CARTESIAN_POINT('',(0.00000000000000,-2.99997711708048,-2.28829195217106E-05));
#265=DIRECTION('',(0.00000000000000,1.00000000000000,-6.12323399573677E-17));
#266=DIRECTION('',(1.00000000000000,0.00000000000000,0.00000000000000));
#267=AXIS2_PLACEMENT_3D('',#264,#265,#266);
#268=CIRCLE('',#267,1.62500000000000);
#269=EDGE_CURVE('',#100,#263,#268,.T.);
#270=ORIENTED_EDGE('',*,*,#269,.T.);
#271=CARTESIAN_POINT('',(-2.98507657292167E-16,3.00002288291952,-1.62502288291952));
#272=VERTEX_POINT('',#271);
#273=CARTESIAN_POINT('',(-2.98507657292167E-16,2.28829195217950E-05,-1.62502288291952));
#274=DIRECTION('',(0.00000000000000,1.00000000000000,-6.12935628178472E-17));
#275=VECTOR('',#274,1.00000000000000);
#276=LINE('',#273,#275);
#277=EDGE_CURVE('',#263,#272,#276,.T.);
#278=ORIENTED_EDGE('',*,*,#277,.T.);
#279=CARTESIAN_POINT('',(0.00000000000000,3.00002288291952,-2.28829195220784E-05));
#280=DIRECTION('',(0.00000000000000,-1.00000000000000,6.12323399573677E-17));
#281=DIRECTION('',(1.00000000000000,0.00000000000000,0.00000000000000));
#282=AXIS2_PLACEMENT_3D('',#279,#280,#281);
#283=CIRCLE('',#282,1.62500000000000);
#284=EDGE_CURVE('',#272,#109,#283,.T.);
#285=ORIENTED_EDGE('',*,*,#284,.T.);
#286=ORIENTED_EDGE('',*,*,#114,.T.);
#287=EDGE_LOOP('',(#270,#278,#285,#286));
#288=FACE_OUTER_BOUND('',#287,.T.);
#289=CARTESIAN_POINT('',(0.00000000000000,2.28829195218945E-05,-2.28829195218945E-05));
#290=DIRECTION('',(0.00000000000000,-1.00000000000000,6.12935628178472E-17));
#291=DIRECTION('',(-0.712179990479564,-4.30282312184295E-17,-0.701996909651693));
#292=AXIS2_PLACEMENT_3D('',#289,#290,#291);
#293=CYLINDRICAL_SURFACE('',#292,1.62500000000000);
#294=ADVANCED_FACE('',(#288),#293,.T.);
#295=CARTESIAN_POINT('',(-2.80137955304957E-16,-2.99997711708048,-1.52502288291952));
#296=VERTEX_POINT('',#295);
#297=CARTESIAN_POINT('',(-2.80137955304957E-16,-2.99997711708048,-1.52502288291952));
#298=DIRECTION('',(1.83697019872103E-16,6.12235414275408E-17,1.00000000000000));
#299=VECTOR('',#298,1.00000000000000);
#300=LINE('',#297,#299);
#301=EDGE_CURVE('',#263,#296,#300,.T.);
#302=ORIENTED_EDGE('',*,*,#301,.T.);
#303=CARTESIAN_POINT('',(-2.80137955304957E-16,3.00002288291952,-1.52502288291952));
#304=VERTEX_POINT('',#303);
#305=CARTESIAN_POINT('',(-2.80137955304957E-16,2.28829195218011E-05,-1.52502288291952));
#306=DIRECTION('',(0.00000000000000,-1.00000000000000,6.12935628178472E-17));
#307=VECTOR('',#306,1.00000000000000);
#308=LINE('',#305,#307);
#309=EDGE_CURVE('',#304,#296,#308,.T.);
#310=ORIENTED_EDGE('',*,*,#309,.F.);
#311=CARTESIAN_POINT('',(-2.80137955304957E-16,3.00002288291952,-1.52502288291952));
#312=DIRECTION('',(-1.83697019872103E-16,-6.12235414275408E-17,-1.00000000000000));
#313=VECTOR('',#312,1.00000000000000);
#314=LINE('',#311,#313);
#315=EDGE_CURVE('',#304,#272,#314,.T.);
#316=ORIENTED_EDGE('',*,*,#315,.T.);
#317=ORIENTED_EDGE('',*,*,#277,.F.);
#318=EDGE_LOOP('',(#302,#310,#316,#317));
#319=FACE_OUTER_BOUND('',#318,.T.);
#320=CARTESIAN_POINT('',(-2.89322806298562E-16,2.28829195217981E-05,-1.57502288291952));
#321=DIRECTION('',(-1.00000000000000,1.12594448269821E-32,1.83697019872103E-16));
#322=DIRECTION('',(-1.83697019872103E-16,-6.12235414275408E-17,-1.00000000000000));
#323=AXIS2_PLACEMENT_3D('',#320,#321,#322);
#324=PLANE('',#323);
#325=ADVANCED_FACE('',(#319),#324,.T.);
#326=CARTESIAN_POINT('',(0.00000000000000,-2.99997711708048,-2.28829195217106E-05));
#327=DIRECTION('',(0.00000000000000,-1.00000000000000,6.12323399573677E-17));
#328=DIRECTION('',(1.00000000000000,0.00000000000000,0.00000000000000));
#329=AXIS2_PLACEMENT_3D('',#326,#327,#328);
#330=CIRCLE('',#329,1.52500000000000);
#331=EDGE_CURVE('',#296,#133,#330,.T.);
#332=ORIENTED_EDGE('',*,*,#331,.T.);
#333=ORIENTED_EDGE('',*,*,#164,.T.);
#334=CARTESIAN_POINT('',(0.00000000000000,3.00002288291952,-2.28829195220784E-05));
#335=DIRECTION('',(0.00000000000000,1.00000000000000,-6.12323399573677E-17));
#336=DIRECTION('',(1.00000000000000,0.00000000000000,0.00000000000000));
#337=AXIS2_PLACEMENT_3D('',#334,#335,#336);
#338=CIRCLE('',#337,1.52500000000000);
#339=EDGE_CURVE('',#152,#304,#338,.T.);
#340=ORIENTED_EDGE('',*,*,#339,.T.);
#341=ORIENTED_EDGE('',*,*,#309,.T.);
#342=EDGE_LOOP('',(#332,#333,#340,#341));
#343=FACE_OUTER_BOUND('',#342,.T.);
#344=CARTESIAN_POINT('',(0.00000000000000,2.28829195218945E-05,-2.28829195218945E-05));
#345=DIRECTION('',(0.00000000000000,-1.00000000000000,6.12935628178472E-17));
#346=DIRECTION('',(-0.713049057360245,-4.29748414393179E-17,-0.701114143201851));
#347=AXIS2_PLACEMENT_3D('',#344,#345,#346);
#348=CYLINDRICAL_SURFACE('',#347,1.52500000000000);
#349=ADVANCED_FACE('',(#343),#348,.F.);
#350=ORIENTED_EDGE('',*,*,#269,.F.);
#351=ORIENTED_EDGE('',*,*,#106,.F.);
#352=ORIENTED_EDGE('',*,*,#73,.F.);
#353=ORIENTED_EDGE('',*,*,#33,.F.);
#354=ORIENTED_EDGE('',*,*,#244,.F.);
#355=ORIENTED_EDGE('',*,*,#214,.F.);
#356=ORIENTED_EDGE('',*,*,#181,.F.);
#357=ORIENTED_EDGE('',*,*,#141,.F.);
#358=ORIENTED_EDGE('',*,*,#331,.F.);
#359=ORIENTED_EDGE('',*,*,#301,.F.);
#360=EDGE_LOOP('',(#350,#351,#352,#353,#354,#355,#356,#357,#358,#359));
#361=FACE_OUTER_BOUND('',#360,.T.);
#362=CARTESIAN_POINT('',(-1.59358377901767,-2.99997711708048,0.0241083471102975));
#363=DIRECTION('',(-2.55423600981416E-21,-1.00000000000000,6.12291713599511E-17));
#364=DIRECTION('',(1.00000000000000,-2.55423600981416E-21,0.00000000000000));
#365=AXIS2_PLACEMENT_3D('',#362,#363,#364);
#366=PLANE('',#365);
#367=ADVANCED_FACE('',(#361),#366,.T.);
#368=ORIENTED_EDGE('',*,*,#339,.F.);
#369=ORIENTED_EDGE('',*,*,#158,.F.);
#370=ORIENTED_EDGE('',*,*,#196,.F.);
#371=ORIENTED_EDGE('',*,*,#229,.F.);
#372=ORIENTED_EDGE('',*,*,#251,.F.);
#373=ORIENTED_EDGE('',*,*,#50,.F.);
#374=ORIENTED_EDGE('',*,*,#88,.F.);
#375=ORIENTED_EDGE('',*,*,#121,.F.);
#376=ORIENTED_EDGE('',*,*,#284,.F.);
#377=ORIENTED_EDGE('',*,*,#315,.F.);
#378=EDGE_LOOP('',(#368,#369,#370,#371,#372,#373,#374,#375,#376,#377));
#379=FACE_OUTER_BOUND('',#378,.T.);
#380=CARTESIAN_POINT('',(-1.59358377901767,3.00002288291952,0.0241083471102972));
#381=DIRECTION('',(-2.55423600981416E-21,-1.00000000000000,6.12291713599511E-17));
#382=DIRECTION('',(1.00000000000000,-2.55423600981416E-21,0.00000000000000));
#383=AXIS2_PLACEMENT_3D('',#380,#381,#382);
#384=PLANE('',#383);
#385=ADVANCED_FACE('',(#379),#384,.F.);
#386=CLOSED_SHELL('',(#65,#98,#131,#173,#206,#239,#261,#294,#325,#349,#367,#385));
#387=MANIFOLD_SOLID_BREP('',#386);
#388=COLOUR_RGB('',1.00000000000000,0.00000000000000,0.00000000000000);
#389=FILL_AREA_STYLE_COLOUR('',#388);
#390=FILL_AREA_STYLE('',(#389));
#391=SURFACE_STYLE_FILL_AREA(#390);
#392=SURFACE_SIDE_STYLE('',(#391));
#393=SURFACE_STYLE_USAGE(.BOTH.,#392);
#394=PRESENTATION_STYLE_ASSIGNMENT((#393));
#395=STYLED_ITEM('',(#394),#387);
#396=ADVANCED_BREP_SHAPE_REPRESENTATION('',(#387,#23),#18);
#397=PRODUCT('', '', ' ',(#2));
#398=PRODUCT_DEFINITION_FORMATION_WITH_SPECIFIED_SOURCE (' ', ' ', #397, .NOT_KNOWN.) ;
#399=PRODUCT_CATEGORY('part','') ;
#400=PRODUCT_RELATED_PRODUCT_CATEGORY('detail', ' ', (#397)) ;
#401=PRODUCT_CATEGORY_RELATIONSHIP(' ', ' ', #399, #400);
#402=PRODUCT_DEFINITION('', '', #398, #1);
#403=PRODUCT_DEFINITION_SHAPE('NONE', 'NONE', #402);
#404=SHAPE_DEFINITION_REPRESENTATION(#403, #396);
#405=CARTESIAN_POINT('',(-1.62483149540539,2.28829195218959E-05,0.0233782183087625));
#406=DIRECTION('',(0.999727130741842,1.45578987016110E-18,0.0233594533044607));
#407=VECTOR('',#406,1.00000000000000);
#408=LINE('',#405,#407);
#409=TRIMMED_CURVE('',#408,(PARAMETER_VALUE(0.00000000000000)),(PARAMETER_VALUE(0.100076027395092)),.T.,.UNSPECIFIED.);
#410=COLOUR_RGB('',0.627450980392157,0.627450980392157,1.00000000000000);
#411=DRAUGHTING_PRE_DEFINED_CURVE_FONT('continuous');
#412=CURVE_STYLE('',#411,POSITIVE_LENGTH_MEASURE(0.0),#410);
#413=PRESENTATION_STYLE_ASSIGNMENT((#412));
#414=STYLED_ITEM('',(#413),#409);
#415=GEOMETRIC_CURVE_SET(' ',(#409));
#416=GEOMETRICALLY_BOUNDED_WIREFRAME_SHAPE_REPRESENTATION('',(#415,#23),#18);
#417=PRODUCT('', '', ' ',(#2));
#418=PRODUCT_DEFINITION_FORMATION_WITH_SPECIFIED_SOURCE (' ', ' ', #417, .NOT_KNOWN.) ;
#419=PRODUCT_CATEGORY('part','') ;
#420=PRODUCT_RELATED_PRODUCT_CATEGORY('detail', ' ', (#417)) ;
#421=PRODUCT_CATEGORY_RELATIONSHIP(' ', ' ', #419, #420);
#422=PRODUCT_DEFINITION('', '', #418, #1);
#423=PRODUCT_DEFINITION_SHAPE('NONE', 'NONE', #422);
#424=SHAPE_DEFINITION_REPRESENTATION(#423, #416);
#425=PRESENTATION_LAYER_ASSIGNMENT('1','Unnamed [1]',(#387,#409));
#426=MECHANICAL_DESIGN_GEOMETRIC_PRESENTATION_REPRESENTATION('',(#395, #414), #18);
ENDSEC;
END-ISO-10303-21;
