ISO-10303-21;
HEADER;
FILE_DESCRIPTION((''),'2;1');
FILE_NAME('C:/Program Files/Kubotek/KeyCreatorPro.2021.SP0/STEP/SG1653.STP', '2021-02-02T21:30:20',(''), (''), 'KCM Version 2.0.6974.6974', 'KeyCreator Pro', '');
FILE_SCHEMA(('AUTOMOTIVE_DESIGN'));
ENDSEC;
DATA;
#1=PRODUCT_DEFINITION_CONTEXT('',#4,'design');
#2=PRODUCT_CONTEXT('',#4,'mechanical');
#3=APPLICATION_PROTOCOL_DEFINITION('International Standard','automotive_design',2001,#4);
#4=APPLICATION_CONTEXT('automotive design');
#10=DIMENSIONAL_EXPONENTS(1.0,0.0,0.0,0.0,0.0,0.0,0.0);
#11=DIMENSIONAL_EXPONENTS(0.0,0.0,0.0,0.0,0.0,0.0,0.0);
#12=(NAMED_UNIT(#10)LENGTH_UNIT()SI_UNIT(.MILLI.,.METRE.));
#13=(NAMED_UNIT(#11)PLANE_ANGLE_UNIT()SI_UNIT($,.RADIAN.));
#14=(NAMED_UNIT(#11)SOLID_ANGLE_UNIT()SI_UNIT($,.STERADIAN.));
#15=LENGTH_MEASURE_WITH_UNIT(LENGTH_MEASURE(25.4),#12);
#16= (CONVERSION_BASED_UNIT('INCH',#15)LENGTH_UNIT()NAMED_UNIT(#10));
#17=UNCERTAINTY_MEASURE_WITH_UNIT(LENGTH_MEASURE(1.0E-006),#16,'','');
#18=(GEOMETRIC_REPRESENTATION_CONTEXT(3)GLOBAL_UNCERTAINTY_ASSIGNED_CONTEXT((#17))GLOBAL_UNIT_ASSIGNED_CONTEXT((#16,#13,#14))REPRESENTATION_CONTEXT('NONE','WORKSPACE'));
#20=CARTESIAN_POINT('',(0.00000000000000,0.00000000000000,0.00000000000000));
#21=DIRECTION('',(0.00000000000000,0.00000000000000,1.00000000000000));
#22=DIRECTION('',(1.00000000000000,0.00000000000000,0.00000000000000));
#23=AXIS2_PLACEMENT_3D('',#20,#21,#22);
#24=CARTESIAN_POINT('',(2.95271897315979,11.3295694389343,-0.460250000000000));
#25=VERTEX_POINT('',#24);
#26=CARTESIAN_POINT('',(3.03271897315979,11.3295694389343,-0.710250000000000));
#27=VERTEX_POINT('',#26);
#28=CARTESIAN_POINT('',(2.95271897315979,11.3295694389343,-0.460250000000000));
#29=DIRECTION('',(0.304775727103784,0.00000000000000,-0.952424147199324));
#30=VECTOR('',#29,1.00000000000000);
#31=LINE('',#28,#30);
#32=EDGE_CURVE('',#25,#27,#31,.T.);
#33=ORIENTED_EDGE('',*,*,#32,.T.);
#34=CARTESIAN_POINT('',(3.03271897315979,5.32956943893433,-0.710250000000000));
#35=VERTEX_POINT('',#34);
#36=CARTESIAN_POINT('',(3.03271897315979,5.32956943893433,-0.710250000000000));
#37=DIRECTION('',(0.00000000000000,1.00000000000000,0.00000000000000));
#38=VECTOR('',#37,1.00000000000000);
#39=LINE('',#36,#38);
#40=EDGE_CURVE('',#35,#27,#39,.T.);
#41=ORIENTED_EDGE('',*,*,#40,.F.);
#42=CARTESIAN_POINT('',(2.95271897315979,5.32956943893433,-0.460250000000000));
#43=VERTEX_POINT('',#42);
#44=CARTESIAN_POINT('',(2.95271897315979,5.32956943893433,-0.460250000000000));
#45=DIRECTION('',(0.304775727103784,0.00000000000000,-0.952424147199324));
#46=VECTOR('',#45,1.00000000000000);
#47=LINE('',#44,#46);
#48=EDGE_CURVE('',#43,#35,#47,.T.);
#49=ORIENTED_EDGE('',*,*,#48,.F.);
#50=CARTESIAN_POINT('',(2.95271897315979,5.32956943893433,-0.460250000000000));
#51=DIRECTION('',(0.00000000000000,1.00000000000000,0.00000000000000));
#52=VECTOR('',#51,1.00000000000000);
#53=LINE('',#50,#52);
#54=EDGE_CURVE('',#43,#25,#53,.T.);
#55=ORIENTED_EDGE('',*,*,#54,.T.);
#56=EDGE_LOOP('',(#33,#41,#49,#55));
#57=FACE_OUTER_BOUND('',#56,.T.);
#58=CARTESIAN_POINT('',(2.99271897315979,5.32956943893433,-0.585250000000000));
#59=DIRECTION('',(-0.952424147199324,0.00000000000000,-0.304775727103784));
#60=DIRECTION('',(-0.304775727103784,-0.00000000000000,0.952424147199324));
#61=AXIS2_PLACEMENT_3D('',#58,#59,#60);
#62=PLANE('',#61);
#63=ADVANCED_FACE('',(#57),#62,.T.);
#64=CARTESIAN_POINT('',(3.03271897315979,11.3295694389343,0.460249999999999));
#65=VERTEX_POINT('',#64);
#66=CARTESIAN_POINT('',(3.03271897315979,11.3295694389343,0.460249999999999));
#67=DIRECTION('',(0.00000000000000,0.00000000000000,1.00000000000000));
#68=VECTOR('',#67,1.00000000000000);
#69=LINE('',#66,#68);
#70=EDGE_CURVE('',#27,#65,#69,.T.);
#71=ORIENTED_EDGE('',*,*,#70,.T.);
#72=CARTESIAN_POINT('',(3.03271897315979,5.32956943893433,0.460249999999999));
#73=VERTEX_POINT('',#72);
#74=CARTESIAN_POINT('',(3.03271897315979,5.32956943893433,0.460249999999999));
#75=DIRECTION('',(0.00000000000000,1.00000000000000,0.00000000000000));
#76=VECTOR('',#75,1.00000000000000);
#77=LINE('',#74,#76);
#78=EDGE_CURVE('',#73,#65,#77,.T.);
#79=ORIENTED_EDGE('',*,*,#78,.F.);
#80=CARTESIAN_POINT('',(3.03271897315979,5.32956943893433,0.460249999999999));
#81=DIRECTION('',(0.00000000000000,0.00000000000000,-1.00000000000000));
#82=VECTOR('',#81,1.00000000000000);
#83=LINE('',#80,#82);
#84=EDGE_CURVE('',#73,#35,#83,.T.);
#85=ORIENTED_EDGE('',*,*,#84,.T.);
#86=ORIENTED_EDGE('',*,*,#40,.T.);
#87=EDGE_LOOP('',(#71,#79,#85,#86));
#88=FACE_OUTER_BOUND('',#87,.T.);
#89=CARTESIAN_POINT('',(3.03271897315979,5.32956943893433,-0.125000000000000));
#90=DIRECTION('',(1.00000000000000,-0.00000000000000,0.00000000000000));
#91=DIRECTION('',(0.00000000000000,0.00000000000000,-1.00000000000000));
#92=AXIS2_PLACEMENT_3D('',#89,#90,#91);
#93=PLANE('',#92);
#94=ADVANCED_FACE('',(#88),#93,.T.);
#95=CARTESIAN_POINT('',(3.28071897315979,11.3295694389343,0.460249999999999));
#96=VERTEX_POINT('',#95);
#97=CARTESIAN_POINT('',(3.15671897315979,11.3295694389343,0.460249999999999));
#98=DIRECTION('',(0.00000000000000,1.00000000000000,-6.12323399573677E-17));
#99=DIRECTION('',(1.00000000000000,0.00000000000000,0.00000000000000));
#100=AXIS2_PLACEMENT_3D('',#97,#98,#99);
#101=CIRCLE('',#100,0.124000000000000);
#102=EDGE_CURVE('',#65,#96,#101,.T.);
#103=ORIENTED_EDGE('',*,*,#102,.T.);
#104=CARTESIAN_POINT('',(3.28071897315979,5.32956943893433,0.460249999999999));
#105=VERTEX_POINT('',#104);
#106=CARTESIAN_POINT('',(3.28071897315979,5.32956943893433,0.460249999999999));
#107=DIRECTION('',(0.00000000000000,1.00000000000000,0.00000000000000));
#108=VECTOR('',#107,1.00000000000000);
#109=LINE('',#106,#108);
#110=EDGE_CURVE('',#105,#96,#109,.T.);
#111=ORIENTED_EDGE('',*,*,#110,.F.);
#112=CARTESIAN_POINT('',(3.15671897315979,5.32956943893433,0.460249999999999));
#113=DIRECTION('',(0.00000000000000,-1.00000000000000,6.12323399573677E-17));
#114=DIRECTION('',(1.00000000000000,0.00000000000000,0.00000000000000));
#115=AXIS2_PLACEMENT_3D('',#112,#113,#114);
#116=CIRCLE('',#115,0.124000000000000);
#117=EDGE_CURVE('',#105,#73,#116,.T.);
#118=ORIENTED_EDGE('',*,*,#117,.T.);
#119=ORIENTED_EDGE('',*,*,#78,.T.);
#120=EDGE_LOOP('',(#103,#111,#118,#119));
#121=FACE_OUTER_BOUND('',#120,.T.);
#122=CARTESIAN_POINT('',(3.15671897315979,5.32956943893433,0.460249999999999));
#123=DIRECTION('',(0.00000000000000,1.00000000000000,0.00000000000000));
#124=DIRECTION('',(0.00000000000000,0.00000000000000,-1.00000000000000));
#125=AXIS2_PLACEMENT_3D('',#122,#123,#124);
#126=CYLINDRICAL_SURFACE('',#125,0.124000000000000);
#127=ADVANCED_FACE('',(#121),#126,.F.);
#128=CARTESIAN_POINT('',(3.28071897315979,11.3295694389343,-0.710250000000000));
#129=VERTEX_POINT('',#128);
#130=CARTESIAN_POINT('',(3.28071897315979,11.3295694389343,-0.710250000000000));
#131=DIRECTION('',(-0.00000000000000,-0.00000000000000,-1.00000000000000));
#132=VECTOR('',#131,1.00000000000000);
#133=LINE('',#130,#132);
#134=EDGE_CURVE('',#96,#129,#133,.T.);
#135=ORIENTED_EDGE('',*,*,#134,.T.);
#136=CARTESIAN_POINT('',(3.28071897315979,5.32956943893433,-0.710250000000000));
#137=VERTEX_POINT('',#136);
#138=CARTESIAN_POINT('',(3.28071897315979,5.32956943893433,-0.710250000000000));
#139=DIRECTION('',(0.00000000000000,1.00000000000000,0.00000000000000));
#140=VECTOR('',#139,1.00000000000000);
#141=LINE('',#138,#140);
#142=EDGE_CURVE('',#137,#129,#141,.T.);
#143=ORIENTED_EDGE('',*,*,#142,.F.);
#144=CARTESIAN_POINT('',(3.28071897315979,5.32956943893433,-0.710250000000000));
#145=DIRECTION('',(0.00000000000000,0.00000000000000,1.00000000000000));
#146=VECTOR('',#145,1.00000000000000);
#147=LINE('',#144,#146);
#148=EDGE_CURVE('',#137,#105,#147,.T.);
#149=ORIENTED_EDGE('',*,*,#148,.T.);
#150=ORIENTED_EDGE('',*,*,#110,.T.);
#151=EDGE_LOOP('',(#135,#143,#149,#150));
#152=FACE_OUTER_BOUND('',#151,.T.);
#153=CARTESIAN_POINT('',(3.28071897315979,5.32956943893433,-0.125000000000000));
#154=DIRECTION('',(-1.00000000000000,0.00000000000000,0.00000000000000));
#155=DIRECTION('',(0.00000000000000,0.00000000000000,1.00000000000000));
#156=AXIS2_PLACEMENT_3D('',#153,#154,#155);
#157=PLANE('',#156);
#158=ADVANCED_FACE('',(#152),#157,.T.);
#159=CARTESIAN_POINT('',(3.36071897315979,11.3295694389343,-0.460250000000000));
#160=VERTEX_POINT('',#159);
#161=CARTESIAN_POINT('',(3.36071897315979,11.3295694389343,-0.460250000000000));
#162=DIRECTION('',(0.304775727103784,0.00000000000000,0.952424147199324));
#163=VECTOR('',#162,1.00000000000000);
#164=LINE('',#161,#163);
#165=EDGE_CURVE('',#129,#160,#164,.T.);
#166=ORIENTED_EDGE('',*,*,#165,.T.);
#167=CARTESIAN_POINT('',(3.36071897315979,5.32956943893433,-0.460250000000000));
#168=VERTEX_POINT('',#167);
#169=CARTESIAN_POINT('',(3.36071897315979,5.32956943893433,-0.460250000000000));
#170=DIRECTION('',(0.00000000000000,1.00000000000000,0.00000000000000));
#171=VECTOR('',#170,1.00000000000000);
#172=LINE('',#169,#171);
#173=EDGE_CURVE('',#168,#160,#172,.T.);
#174=ORIENTED_EDGE('',*,*,#173,.F.);
#175=CARTESIAN_POINT('',(3.36071897315979,5.32956943893433,-0.460250000000000));
#176=DIRECTION('',(-0.304775727103784,0.00000000000000,-0.952424147199324));
#177=VECTOR('',#176,1.00000000000000);
#178=LINE('',#175,#177);
#179=EDGE_CURVE('',#168,#137,#178,.T.);
#180=ORIENTED_EDGE('',*,*,#179,.T.);
#181=ORIENTED_EDGE('',*,*,#142,.T.);
#182=EDGE_LOOP('',(#166,#174,#180,#181));
#183=FACE_OUTER_BOUND('',#182,.T.);
#184=CARTESIAN_POINT('',(3.32071897315979,5.32956943893433,-0.585250000000000));
#185=DIRECTION('',(0.952424147199324,0.00000000000000,-0.304775727103784));
#186=DIRECTION('',(-0.304775727103784,0.00000000000000,-0.952424147199324));
#187=AXIS2_PLACEMENT_3D('',#184,#185,#186);
#188=PLANE('',#187);
#189=ADVANCED_FACE('',(#183),#188,.T.);
#190=CARTESIAN_POINT('',(3.36071897315979,11.3295694389343,0.460249999999999));
#191=VERTEX_POINT('',#190);
#192=CARTESIAN_POINT('',(3.36071897315979,11.3295694389343,-0.460250000000000));
#193=DIRECTION('',(0.00000000000000,0.00000000000000,1.00000000000000));
#194=VECTOR('',#193,1.00000000000000);
#195=LINE('',#192,#194);
#196=EDGE_CURVE('',#160,#191,#195,.T.);
#197=ORIENTED_EDGE('',*,*,#196,.T.);
#198=CARTESIAN_POINT('',(3.36071897315979,5.32956943893433,0.460249999999999));
#199=VERTEX_POINT('',#198);
#200=CARTESIAN_POINT('',(3.36071897315979,5.32956943893433,0.460249999999999));
#201=DIRECTION('',(0.00000000000000,1.00000000000000,0.00000000000000));
#202=VECTOR('',#201,1.00000000000000);
#203=LINE('',#200,#202);
#204=EDGE_CURVE('',#199,#191,#203,.T.);
#205=ORIENTED_EDGE('',*,*,#204,.F.);
#206=CARTESIAN_POINT('',(3.36071897315979,5.32956943893433,-0.460250000000000));
#207=DIRECTION('',(0.00000000000000,0.00000000000000,1.00000000000000));
#208=VECTOR('',#207,1.00000000000000);
#209=LINE('',#206,#208);
#210=EDGE_CURVE('',#168,#199,#209,.T.);
#211=ORIENTED_EDGE('',*,*,#210,.F.);
#212=ORIENTED_EDGE('',*,*,#173,.T.);
#213=EDGE_LOOP('',(#197,#205,#211,#212));
#214=FACE_OUTER_BOUND('',#213,.T.);
#215=CARTESIAN_POINT('',(3.36071897315979,5.32956943893433,-4.44089209850063E-16));
#216=DIRECTION('',(1.00000000000000,0.00000000000000,0.00000000000000));
#217=DIRECTION('',(-0.00000000000000,-0.00000000000000,-1.00000000000000));
#218=AXIS2_PLACEMENT_3D('',#215,#216,#217);
#219=PLANE('',#218);
#220=ADVANCED_FACE('',(#214),#219,.T.);
#221=CARTESIAN_POINT('',(2.95271897315979,11.3295694389343,0.460249999999999));
#222=VERTEX_POINT('',#221);
#223=CARTESIAN_POINT('',(3.15671897315979,11.3295694389343,0.460249999999999));
#224=DIRECTION('',(0.00000000000000,-1.00000000000000,6.12323399573677E-17));
#225=DIRECTION('',(1.00000000000000,0.00000000000000,0.00000000000000));
#226=AXIS2_PLACEMENT_3D('',#223,#224,#225);
#227=CIRCLE('',#226,0.204000000000000);
#228=EDGE_CURVE('',#191,#222,#227,.T.);
#229=ORIENTED_EDGE('',*,*,#228,.T.);
#230=CARTESIAN_POINT('',(2.95271897315979,5.32956943893433,0.460249999999999));
#231=VERTEX_POINT('',#230);
#232=CARTESIAN_POINT('',(2.95271897315979,5.32956943893433,0.460249999999999));
#233=DIRECTION('',(0.00000000000000,1.00000000000000,0.00000000000000));
#234=VECTOR('',#233,1.00000000000000);
#235=LINE('',#232,#234);
#236=EDGE_CURVE('',#231,#222,#235,.T.);
#237=ORIENTED_EDGE('',*,*,#236,.F.);
#238=CARTESIAN_POINT('',(3.15671897315979,5.32956943893433,0.460249999999999));
#239=DIRECTION('',(0.00000000000000,-1.00000000000000,6.12323399573677E-17));
#240=DIRECTION('',(1.00000000000000,0.00000000000000,0.00000000000000));
#241=AXIS2_PLACEMENT_3D('',#238,#239,#240);
#242=CIRCLE('',#241,0.204000000000000);
#243=EDGE_CURVE('',#199,#231,#242,.T.);
#244=ORIENTED_EDGE('',*,*,#243,.F.);
#245=ORIENTED_EDGE('',*,*,#204,.T.);
#246=EDGE_LOOP('',(#229,#237,#244,#245));
#247=FACE_OUTER_BOUND('',#246,.T.);
#248=CARTESIAN_POINT('',(3.15671897315979,5.32956943893433,0.460249999999999));
#249=DIRECTION('',(0.00000000000000,1.00000000000000,0.00000000000000));
#250=DIRECTION('',(0.00000000000000,0.00000000000000,-1.00000000000000));
#251=AXIS2_PLACEMENT_3D('',#248,#249,#250);
#252=CYLINDRICAL_SURFACE('',#251,0.204000000000000);
#253=ADVANCED_FACE('',(#247),#252,.T.);
#254=CARTESIAN_POINT('',(2.95271897315979,11.3295694389343,0.460249999999999));
#255=DIRECTION('',(0.00000000000000,0.00000000000000,-1.00000000000000));
#256=VECTOR('',#255,1.00000000000000);
#257=LINE('',#254,#256);
#258=EDGE_CURVE('',#222,#25,#257,.T.);
#259=ORIENTED_EDGE('',*,*,#258,.T.);
#260=ORIENTED_EDGE('',*,*,#54,.F.);
#261=CARTESIAN_POINT('',(2.95271897315979,5.32956943893433,0.460249999999999));
#262=DIRECTION('',(0.00000000000000,0.00000000000000,-1.00000000000000));
#263=VECTOR('',#262,1.00000000000000);
#264=LINE('',#261,#263);
#265=EDGE_CURVE('',#231,#43,#264,.T.);
#266=ORIENTED_EDGE('',*,*,#265,.F.);
#267=ORIENTED_EDGE('',*,*,#236,.T.);
#268=EDGE_LOOP('',(#259,#260,#266,#267));
#269=FACE_OUTER_BOUND('',#268,.T.);
#270=CARTESIAN_POINT('',(2.95271897315979,5.32956943893433,-4.44089209850063E-16));
#271=DIRECTION('',(-1.00000000000000,0.00000000000000,0.00000000000000));
#272=DIRECTION('',(-0.00000000000000,-0.00000000000000,1.00000000000000));
#273=AXIS2_PLACEMENT_3D('',#270,#271,#272);
#274=PLANE('',#273);
#275=ADVANCED_FACE('',(#269),#274,.T.);
#276=ORIENTED_EDGE('',*,*,#32,.F.);
#277=ORIENTED_EDGE('',*,*,#258,.F.);
#278=ORIENTED_EDGE('',*,*,#228,.F.);
#279=ORIENTED_EDGE('',*,*,#196,.F.);
#280=ORIENTED_EDGE('',*,*,#165,.F.);
#281=ORIENTED_EDGE('',*,*,#134,.F.);
#282=ORIENTED_EDGE('',*,*,#102,.F.);
#283=ORIENTED_EDGE('',*,*,#70,.F.);
#284=EDGE_LOOP('',(#276,#277,#278,#279,#280,#281,#282,#283));
#285=FACE_OUTER_BOUND('',#284,.T.);
#286=CARTESIAN_POINT('',(2.95271897315979,11.3295694389343,0.172754837499999));
#287=DIRECTION('',(0.00000000000000,-1.00000000000000,0.00000000000000));
#288=DIRECTION('',(1.00000000000000,0.00000000000000,0.00000000000000));
#289=AXIS2_PLACEMENT_3D('',#286,#287,#288);
#290=PLANE('',#289);
#291=ADVANCED_FACE('',(#285),#290,.F.);
#292=ORIENTED_EDGE('',*,*,#265,.T.);
#293=ORIENTED_EDGE('',*,*,#48,.T.);
#294=ORIENTED_EDGE('',*,*,#84,.F.);
#295=ORIENTED_EDGE('',*,*,#117,.F.);
#296=ORIENTED_EDGE('',*,*,#148,.F.);
#297=ORIENTED_EDGE('',*,*,#179,.F.);
#298=ORIENTED_EDGE('',*,*,#210,.T.);
#299=ORIENTED_EDGE('',*,*,#243,.T.);
#300=EDGE_LOOP('',(#292,#293,#294,#295,#296,#297,#298,#299));
#301=FACE_OUTER_BOUND('',#300,.T.);
#302=CARTESIAN_POINT('',(2.95271897315979,5.32956943893433,0.172754837499999));
#303=DIRECTION('',(0.00000000000000,-1.00000000000000,0.00000000000000));
#304=DIRECTION('',(1.00000000000000,0.00000000000000,0.00000000000000));
#305=AXIS2_PLACEMENT_3D('',#302,#303,#304);
#306=PLANE('',#305);
#307=ADVANCED_FACE('',(#301),#306,.T.);
#308=CLOSED_SHELL('',(#63,#94,#127,#158,#189,#220,#253,#275,#291,#307));
#309=MANIFOLD_SOLID_BREP('',#308);
#310=COLOUR_RGB('',1.00000000000000,0.00000000000000,0.00000000000000);
#311=FILL_AREA_STYLE_COLOUR('',#310);
#312=FILL_AREA_STYLE('',(#311));
#313=SURFACE_STYLE_FILL_AREA(#312);
#314=SURFACE_SIDE_STYLE('',(#313));
#315=SURFACE_STYLE_USAGE(.BOTH.,#314);
#316=PRESENTATION_STYLE_ASSIGNMENT((#315));
#317=STYLED_ITEM('',(#316),#309);
#318=ADVANCED_BREP_SHAPE_REPRESENTATION('',(#309,#23),#18);
#319=PRODUCT('', '', ' ',(#2));
#320=PRODUCT_DEFINITION_FORMATION_WITH_SPECIFIED_SOURCE (' ', ' ', #319, .NOT_KNOWN.) ;
#321=PRODUCT_CATEGORY('part','') ;
#322=PRODUCT_RELATED_PRODUCT_CATEGORY('detail', ' ', (#319)) ;
#323=PRODUCT_CATEGORY_RELATIONSHIP(' ', ' ', #321, #322);
#324=PRODUCT_DEFINITION('', '', #320, #1);
#325=PRODUCT_DEFINITION_SHAPE('NONE', 'NONE', #324);
#326=SHAPE_DEFINITION_REPRESENTATION(#325, #318);
#327=PRESENTATION_LAYER_ASSIGNMENT('1','Unnamed [1]',(#309));
#328=MECHANICAL_DESIGN_GEOMETRIC_PRESENTATION_REPRESENTATION('',(#317), #18);
ENDSEC;
END-ISO-10303-21;
