ISO-10303-21;
HEADER;
FILE_DESCRIPTION((''),'2;1');
FILE_NAME('C:/Program Files/Kubotek/KeyCreatorPro.2021.SP0/STEP/SG1614.STP', '2021-03-04T13:42:33',(''), (''), 'KCM Version 2.0.6974.6974', 'KeyCreator Pro', '');
FILE_SCHEMA(('AUTOMOTIVE_DESIGN'));
ENDSEC;
DATA;
#1=PRODUCT_DEFINITION_CONTEXT('',#4,'design');
#2=PRODUCT_CONTEXT('',#4,'mechanical');
#3=APPLICATION_PROTOCOL_DEFINITION('International Standard','automotive_design',2001,#4);
#4=APPLICATION_CONTEXT('automotive design');
#10=DIMENSIONAL_EXPONENTS(1.0,0.0,0.0,0.0,0.0,0.0,0.0);
#11=DIMENSIONAL_EXPONENTS(0.0,0.0,0.0,0.0,0.0,0.0,0.0);
#12=(NAMED_UNIT(#10)LENGTH_UNIT()SI_UNIT(.MILLI.,.METRE.));
#13=(NAMED_UNIT(#11)PLANE_ANGLE_UNIT()SI_UNIT($,.RADIAN.));
#14=(NAMED_UNIT(#11)SOLID_ANGLE_UNIT()SI_UNIT($,.STERADIAN.));
#15=LENGTH_MEASURE_WITH_UNIT(LENGTH_MEASURE(25.4),#12);
#16= (CONVERSION_BASED_UNIT('INCH',#15)LENGTH_UNIT()NAMED_UNIT(#10));
#17=UNCERTAINTY_MEASURE_WITH_UNIT(LENGTH_MEASURE(1.0E-006),#16,'','');
#18=(GEOMETRIC_REPRESENTATION_CONTEXT(3)GLOBAL_UNCERTAINTY_ASSIGNED_CONTEXT((#17))GLOBAL_UNIT_ASSIGNED_CONTEXT((#16,#13,#14))REPRESENTATION_CONTEXT('NONE','WORKSPACE'));
#20=CARTESIAN_POINT('',(0.00000000000000,0.00000000000000,0.00000000000000));
#21=DIRECTION('',(0.00000000000000,0.00000000000000,1.00000000000000));
#22=DIRECTION('',(1.00000000000000,0.00000000000000,0.00000000000000));
#23=AXIS2_PLACEMENT_3D('',#20,#21,#22);
#24=CARTESIAN_POINT('',(-0.494463295227617,-2.70170288389437,0.147250988024021));
#25=VERTEX_POINT('',#24);
#26=CARTESIAN_POINT('',(-0.494463295227684,-2.70170288389437,-0.147250988023969));
#27=VERTEX_POINT('',#26);
#28=CARTESIAN_POINT('',(-0.387500000000001,-2.70170288389437,1.63757896132211E-15));
#29=DIRECTION('',(0.00000000000000,-1.00000000000000,6.12323399573677E-17));
#30=DIRECTION('',(1.00000000000000,0.00000000000000,0.00000000000000));
#31=AXIS2_PLACEMENT_3D('',#28,#29,#30);
#32=CIRCLE('',#31,0.182000000000000);
#33=EDGE_CURVE('',#25,#27,#32,.T.);
#34=ORIENTED_EDGE('',*,*,#33,.T.);
#35=CARTESIAN_POINT('',(-0.494463295227684,3.29829711610563,-0.147250988023972));
#36=VERTEX_POINT('',#35);
#37=CARTESIAN_POINT('',(-0.494463295227684,0.298297116105633,-0.147250988023970));
#38=DIRECTION('',(3.70074341541719E-17,1.00000000000000,-4.90348502542778E-16));
#39=VECTOR('',#38,1.00000000000000);
#40=LINE('',#37,#39);
#41=EDGE_CURVE('',#27,#36,#40,.T.);
#42=ORIENTED_EDGE('',*,*,#41,.T.);
#43=CARTESIAN_POINT('',(-0.494463295227617,3.29829711610563,0.147250988024018));
#44=VERTEX_POINT('',#43);
#45=CARTESIAN_POINT('',(-0.387500000000001,3.29829711610563,-1.30451205393456E-15));
#46=DIRECTION('',(0.00000000000000,1.00000000000000,-6.12323399573677E-17));
#47=DIRECTION('',(1.00000000000000,0.00000000000000,0.00000000000000));
#48=AXIS2_PLACEMENT_3D('',#45,#46,#47);
#49=CIRCLE('',#48,0.182000000000000);
#50=EDGE_CURVE('',#36,#44,#49,.T.);
#51=ORIENTED_EDGE('',*,*,#50,.T.);
#52=CARTESIAN_POINT('',(-0.494463295227617,0.298297116105633,0.147250988024020));
#53=DIRECTION('',(-3.70074341541719E-17,-1.00000000000000,4.90348502542778E-16));
#54=VECTOR('',#53,1.00000000000000);
#55=LINE('',#52,#54);
#56=EDGE_CURVE('',#44,#25,#55,.T.);
#57=ORIENTED_EDGE('',*,*,#56,.T.);
#58=EDGE_LOOP('',(#34,#42,#51,#57));
#59=FACE_OUTER_BOUND('',#58,.T.);
#60=CARTESIAN_POINT('',(-0.387500000000001,0.298297116105633,1.66533453693773E-16));
#61=DIRECTION('',(-3.70074341541719E-17,-1.00000000000000,4.90348502542778E-16));
#62=DIRECTION('',(1.00000000000000,-3.70074341541719E-17,1.81465399204486E-32));
#63=AXIS2_PLACEMENT_3D('',#60,#61,#62);
#64=CYLINDRICAL_SURFACE('',#63,0.182000000000000);
#65=ADVANCED_FACE('',(#59),#64,.F.);
#66=CARTESIAN_POINT('',(0.494463295227626,-2.70170288389437,-0.147250988024010));
#67=VERTEX_POINT('',#66);
#68=CARTESIAN_POINT('',(-1.11022302462516E-16,-2.70170288389437,0.586561325917334));
#69=DIRECTION('',(0.00000000000000,-1.00000000000000,6.12323399573677E-17));
#70=DIRECTION('',(1.00000000000000,0.00000000000000,0.00000000000000));
#71=AXIS2_PLACEMENT_3D('',#68,#69,#70);
#72=CIRCLE('',#71,0.884858442022965);
#73=EDGE_CURVE('',#27,#67,#72,.T.);
#74=ORIENTED_EDGE('',*,*,#73,.T.);
#75=CARTESIAN_POINT('',(0.494463295227626,3.29829711610563,-0.147250988024013));
#76=VERTEX_POINT('',#75);
#77=CARTESIAN_POINT('',(0.494463295227626,0.298297116105633,-0.147250988024011));
#78=DIRECTION('',(3.70074341541719E-17,1.00000000000000,-4.90348502542778E-16));
#79=VECTOR('',#78,1.00000000000000);
#80=LINE('',#77,#79);
#81=EDGE_CURVE('',#67,#76,#80,.T.);
#82=ORIENTED_EDGE('',*,*,#81,.T.);
#83=CARTESIAN_POINT('',(1.11022302462516E-16,3.29829711610563,0.586561325917331));
#84=DIRECTION('',(0.00000000000000,1.00000000000000,-6.12323399573677E-17));
#85=DIRECTION('',(1.00000000000000,0.00000000000000,0.00000000000000));
#86=AXIS2_PLACEMENT_3D('',#83,#84,#85);
#87=CIRCLE('',#86,0.884858442022965);
#88=EDGE_CURVE('',#76,#36,#87,.T.);
#89=ORIENTED_EDGE('',*,*,#88,.T.);
#90=ORIENTED_EDGE('',*,*,#41,.F.);
#91=EDGE_LOOP('',(#74,#82,#89,#90));
#92=FACE_OUTER_BOUND('',#91,.T.);
#93=CARTESIAN_POINT('',(0.00000000000000,0.298297116105633,0.586561325917332));
#94=DIRECTION('',(-3.70074341541719E-17,-1.00000000000000,4.90348502542778E-16));
#95=DIRECTION('',(1.00000000000000,-3.70074341541719E-17,1.81465399204486E-32));
#96=AXIS2_PLACEMENT_3D('',#93,#94,#95);
#97=CYLINDRICAL_SURFACE('',#96,0.884858442022965);
#98=ADVANCED_FACE('',(#92),#97,.F.);
#99=CARTESIAN_POINT('',(0.494463295227601,-2.70170288389437,0.147250988024031));
#100=VERTEX_POINT('',#99);
#101=CARTESIAN_POINT('',(0.387499999999999,-2.70170288389437,1.63757896132211E-15));
#102=DIRECTION('',(-0.00000000000000,-1.00000000000000,6.71556881232054E-49));
#103=DIRECTION('',(-1.00000000000000,0.00000000000000,0.00000000000000));
#104=AXIS2_PLACEMENT_3D('',#101,#102,#103);
#105=CIRCLE('',#104,0.182000000000000);
#106=EDGE_CURVE('',#67,#100,#105,.T.);
#107=ORIENTED_EDGE('',*,*,#106,.T.);
#108=CARTESIAN_POINT('',(0.494463295227601,3.29829711610563,0.147250988024028));
#109=VERTEX_POINT('',#108);
#110=CARTESIAN_POINT('',(0.494463295227601,0.298297116105633,0.147250988024030));
#111=DIRECTION('',(-3.70074341541719E-17,-1.00000000000000,4.90348502542778E-16));
#112=VECTOR('',#111,1.00000000000000);
#113=LINE('',#110,#112);
#114=EDGE_CURVE('',#109,#100,#113,.T.);
#115=ORIENTED_EDGE('',*,*,#114,.F.);
#116=CARTESIAN_POINT('',(0.387499999999999,3.29829711610563,-1.30451205393456E-15));
#117=DIRECTION('',(0.00000000000000,1.00000000000000,-6.71556881232054E-49));
#118=DIRECTION('',(-1.00000000000000,0.00000000000000,0.00000000000000));
#119=AXIS2_PLACEMENT_3D('',#116,#117,#118);
#120=CIRCLE('',#119,0.182000000000000);
#121=EDGE_CURVE('',#109,#76,#120,.T.);
#122=ORIENTED_EDGE('',*,*,#121,.T.);
#123=ORIENTED_EDGE('',*,*,#81,.F.);
#124=EDGE_LOOP('',(#107,#115,#122,#123));
#125=FACE_OUTER_BOUND('',#124,.T.);
#126=CARTESIAN_POINT('',(0.387499999999999,0.298297116105633,1.66533453693773E-16));
#127=DIRECTION('',(-3.70074341541719E-17,-1.00000000000000,4.90348502542778E-16));
#128=DIRECTION('',(-1.00000000000000,3.70074341541719E-17,-1.81465399204486E-32));
#129=AXIS2_PLACEMENT_3D('',#126,#127,#128);
#130=CYLINDRICAL_SURFACE('',#129,0.182000000000000);
#131=ADVANCED_FACE('',(#125),#130,.F.);
#132=CARTESIAN_POINT('',(-1.11022302462516E-16,-2.70170288389437,-0.586561325917323));
#133=DIRECTION('',(0.00000000000000,-1.00000000000000,6.12323399573677E-17));
#134=DIRECTION('',(1.00000000000000,0.00000000000000,0.00000000000000));
#135=AXIS2_PLACEMENT_3D('',#132,#133,#134);
#136=CIRCLE('',#135,0.884858442022962);
#137=EDGE_CURVE('',#100,#25,#136,.T.);
#138=ORIENTED_EDGE('',*,*,#137,.T.);
#139=ORIENTED_EDGE('',*,*,#56,.F.);
#140=CARTESIAN_POINT('',(1.11022302462516E-16,3.29829711610563,-0.586561325917326));
#141=DIRECTION('',(0.00000000000000,1.00000000000000,-6.12323399573677E-17));
#142=DIRECTION('',(1.00000000000000,0.00000000000000,0.00000000000000));
#143=AXIS2_PLACEMENT_3D('',#140,#141,#142);
#144=CIRCLE('',#143,0.884858442022962);
#145=EDGE_CURVE('',#44,#109,#144,.T.);
#146=ORIENTED_EDGE('',*,*,#145,.T.);
#147=ORIENTED_EDGE('',*,*,#114,.T.);
#148=EDGE_LOOP('',(#138,#139,#146,#147));
#149=FACE_OUTER_BOUND('',#148,.T.);
#150=CARTESIAN_POINT('',(0.00000000000000,0.298297116105633,-0.586561325917325));
#151=DIRECTION('',(-3.70074341541719E-17,-1.00000000000000,4.90348502542778E-16));
#152=DIRECTION('',(1.00000000000000,-3.70074341541719E-17,1.81465399204486E-32));
#153=AXIS2_PLACEMENT_3D('',#150,#151,#152);
#154=CYLINDRICAL_SURFACE('',#153,0.884858442022962);
#155=ADVANCED_FACE('',(#149),#154,.F.);
#156=CARTESIAN_POINT('',(0.533396084337348,-2.70170288389437,0.203013133996374));
#157=VERTEX_POINT('',#156);
#158=CARTESIAN_POINT('',(0.533396084337348,-2.70170288389437,-0.203013133996371));
#159=VERTEX_POINT('',#158);
#160=CARTESIAN_POINT('',(0.387499999999999,-2.70170288389437,1.63757896132211E-15));
#161=DIRECTION('',(0.00000000000000,1.00000000000000,-6.71556881232054E-49));
#162=DIRECTION('',(-1.00000000000000,0.00000000000000,0.00000000000000));
#163=AXIS2_PLACEMENT_3D('',#160,#161,#162);
#164=CIRCLE('',#163,0.250000000000000);
#165=EDGE_CURVE('',#157,#159,#164,.T.);
#166=ORIENTED_EDGE('',*,*,#165,.T.);
#167=CARTESIAN_POINT('',(0.533396084337348,3.29829711610563,-0.203013133996374));
#168=VERTEX_POINT('',#167);
#169=CARTESIAN_POINT('',(0.533396084337348,0.298297116105633,-0.203013133996372));
#170=DIRECTION('',(3.70074341541719E-17,1.00000000000000,-4.90348502542778E-16));
#171=VECTOR('',#170,1.00000000000000);
#172=LINE('',#169,#171);
#173=EDGE_CURVE('',#159,#168,#172,.T.);
#174=ORIENTED_EDGE('',*,*,#173,.T.);
#175=CARTESIAN_POINT('',(0.533396084337349,3.29829711610563,0.203013133996371));
#176=VERTEX_POINT('',#175);
#177=CARTESIAN_POINT('',(0.387499999999999,3.29829711610563,-1.30451205393456E-15));
#178=DIRECTION('',(-0.00000000000000,-1.00000000000000,6.71556881232054E-49));
#179=DIRECTION('',(-1.00000000000000,0.00000000000000,0.00000000000000));
#180=AXIS2_PLACEMENT_3D('',#177,#178,#179);
#181=CIRCLE('',#180,0.250000000000000);
#182=EDGE_CURVE('',#168,#176,#181,.T.);
#183=ORIENTED_EDGE('',*,*,#182,.T.);
#184=CARTESIAN_POINT('',(0.533396084337348,0.298297116105633,0.203013133996372));
#185=DIRECTION('',(3.70074341541719E-17,1.00000000000000,-4.90348502542778E-16));
#186=VECTOR('',#185,1.00000000000000);
#187=LINE('',#184,#186);
#188=EDGE_CURVE('',#157,#176,#187,.T.);
#189=ORIENTED_EDGE('',*,*,#188,.F.);
#190=EDGE_LOOP('',(#166,#174,#183,#189));
#191=FACE_OUTER_BOUND('',#190,.T.);
#192=CARTESIAN_POINT('',(0.387499999999999,0.298297116105633,1.66533453693773E-16));
#193=DIRECTION('',(-3.70074341541719E-17,-1.00000000000000,4.90348502542778E-16));
#194=DIRECTION('',(-1.00000000000000,3.70074341541719E-17,-1.81465399204486E-32));
#195=AXIS2_PLACEMENT_3D('',#192,#193,#194);
#196=CYLINDRICAL_SURFACE('',#195,0.250000000000000);
#197=ADVANCED_FACE('',(#191),#196,.T.);
#198=CARTESIAN_POINT('',(-0.533396084337350,-2.70170288389437,-0.203013133996371));
#199=VERTEX_POINT('',#198);
#200=CARTESIAN_POINT('',(-1.11022302462516E-16,-2.70170288389437,0.586561325917334));
#201=DIRECTION('',(0.00000000000000,1.00000000000000,-6.12323399573677E-17));
#202=DIRECTION('',(1.00000000000000,0.00000000000000,0.00000000000000));
#203=AXIS2_PLACEMENT_3D('',#200,#201,#202);
#204=CIRCLE('',#203,0.952858442022966);
#205=EDGE_CURVE('',#159,#199,#204,.T.);
#206=ORIENTED_EDGE('',*,*,#205,.T.);
#207=CARTESIAN_POINT('',(-0.533396084337350,3.29829711610563,-0.203013133996374));
#208=VERTEX_POINT('',#207);
#209=CARTESIAN_POINT('',(-0.533396084337350,0.298297116105633,-0.203013133996372));
#210=DIRECTION('',(3.70074341541719E-17,1.00000000000000,-4.90348502542778E-16));
#211=VECTOR('',#210,1.00000000000000);
#212=LINE('',#209,#211);
#213=EDGE_CURVE('',#199,#208,#212,.T.);
#214=ORIENTED_EDGE('',*,*,#213,.T.);
#215=CARTESIAN_POINT('',(1.11022302462516E-16,3.29829711610563,0.586561325917331));
#216=DIRECTION('',(0.00000000000000,-1.00000000000000,6.12323399573677E-17));
#217=DIRECTION('',(1.00000000000000,0.00000000000000,0.00000000000000));
#218=AXIS2_PLACEMENT_3D('',#215,#216,#217);
#219=CIRCLE('',#218,0.952858442022966);
#220=EDGE_CURVE('',#208,#168,#219,.T.);
#221=ORIENTED_EDGE('',*,*,#220,.T.);
#222=ORIENTED_EDGE('',*,*,#173,.F.);
#223=EDGE_LOOP('',(#206,#214,#221,#222));
#224=FACE_OUTER_BOUND('',#223,.T.);
#225=CARTESIAN_POINT('',(0.00000000000000,0.298297116105633,0.586561325917332));
#226=DIRECTION('',(-3.70074341541719E-17,-1.00000000000000,4.90348502542778E-16));
#227=DIRECTION('',(1.00000000000000,-3.70074341541719E-17,1.81465399204486E-32));
#228=AXIS2_PLACEMENT_3D('',#225,#226,#227);
#229=CYLINDRICAL_SURFACE('',#228,0.952858442022966);
#230=ADVANCED_FACE('',(#224),#229,.T.);
#231=CARTESIAN_POINT('',(-0.533396084337350,-2.70170288389437,0.203013133996374));
#232=VERTEX_POINT('',#231);
#233=CARTESIAN_POINT('',(-0.387500000000001,-2.70170288389437,1.63757896132211E-15));
#234=DIRECTION('',(0.00000000000000,1.00000000000000,-6.12323399573677E-17));
#235=DIRECTION('',(1.00000000000000,0.00000000000000,0.00000000000000));
#236=AXIS2_PLACEMENT_3D('',#233,#234,#235);
#237=CIRCLE('',#236,0.250000000000000);
#238=EDGE_CURVE('',#199,#232,#237,.T.);
#239=ORIENTED_EDGE('',*,*,#238,.T.);
#240=CARTESIAN_POINT('',(-0.533396084337350,3.29829711610563,0.203013133996371));
#241=VERTEX_POINT('',#240);
#242=CARTESIAN_POINT('',(-0.533396084337350,0.298297116105633,0.203013133996373));
#243=DIRECTION('',(3.70074341541719E-17,1.00000000000000,-4.90348502542778E-16));
#244=VECTOR('',#243,1.00000000000000);
#245=LINE('',#242,#244);
#246=EDGE_CURVE('',#232,#241,#245,.T.);
#247=ORIENTED_EDGE('',*,*,#246,.T.);
#248=CARTESIAN_POINT('',(-0.387500000000001,3.29829711610563,-1.30451205393456E-15));
#249=DIRECTION('',(0.00000000000000,-1.00000000000000,6.12323399573677E-17));
#250=DIRECTION('',(1.00000000000000,0.00000000000000,0.00000000000000));
#251=AXIS2_PLACEMENT_3D('',#248,#249,#250);
#252=CIRCLE('',#251,0.250000000000000);
#253=EDGE_CURVE('',#241,#208,#252,.T.);
#254=ORIENTED_EDGE('',*,*,#253,.T.);
#255=ORIENTED_EDGE('',*,*,#213,.F.);
#256=EDGE_LOOP('',(#239,#247,#254,#255));
#257=FACE_OUTER_BOUND('',#256,.T.);
#258=CARTESIAN_POINT('',(-0.387500000000001,0.298297116105633,1.66533453693773E-16));
#259=DIRECTION('',(-3.70074341541719E-17,-1.00000000000000,4.90348502542778E-16));
#260=DIRECTION('',(1.00000000000000,-3.70074341541719E-17,1.81465399204486E-32));
#261=AXIS2_PLACEMENT_3D('',#258,#259,#260);
#262=CYLINDRICAL_SURFACE('',#261,0.250000000000000);
#263=ADVANCED_FACE('',(#257),#262,.T.);
#264=CARTESIAN_POINT('',(-1.11022302462516E-16,-2.70170288389437,-0.586561325917323));
#265=DIRECTION('',(0.00000000000000,1.00000000000000,-6.12323399573677E-17));
#266=DIRECTION('',(1.00000000000000,0.00000000000000,0.00000000000000));
#267=AXIS2_PLACEMENT_3D('',#264,#265,#266);
#268=CIRCLE('',#267,0.952858442022962);
#269=EDGE_CURVE('',#232,#157,#268,.T.);
#270=ORIENTED_EDGE('',*,*,#269,.T.);
#271=ORIENTED_EDGE('',*,*,#188,.T.);
#272=CARTESIAN_POINT('',(1.11022302462516E-16,3.29829711610563,-0.586561325917326));
#273=DIRECTION('',(0.00000000000000,-1.00000000000000,6.12323399573677E-17));
#274=DIRECTION('',(1.00000000000000,0.00000000000000,0.00000000000000));
#275=AXIS2_PLACEMENT_3D('',#272,#273,#274);
#276=CIRCLE('',#275,0.952858442022962);
#277=EDGE_CURVE('',#176,#241,#276,.T.);
#278=ORIENTED_EDGE('',*,*,#277,.T.);
#279=ORIENTED_EDGE('',*,*,#246,.F.);
#280=EDGE_LOOP('',(#270,#271,#278,#279));
#281=FACE_OUTER_BOUND('',#280,.T.);
#282=CARTESIAN_POINT('',(0.00000000000000,0.298297116105633,-0.586561325917325));
#283=DIRECTION('',(-3.70074341541719E-17,-1.00000000000000,4.90348502542778E-16));
#284=DIRECTION('',(1.00000000000000,-3.70074341541719E-17,1.81465399204486E-32));
#285=AXIS2_PLACEMENT_3D('',#282,#283,#284);
#286=CYLINDRICAL_SURFACE('',#285,0.952858442022962);
#287=ADVANCED_FACE('',(#281),#286,.T.);
#288=ORIENTED_EDGE('',*,*,#165,.F.);
#289=ORIENTED_EDGE('',*,*,#269,.F.);
#290=ORIENTED_EDGE('',*,*,#238,.F.);
#291=ORIENTED_EDGE('',*,*,#205,.F.);
#292=EDGE_LOOP('',(#288,#289,#290,#291));
#293=FACE_OUTER_BOUND('',#292,.T.);
#294=ORIENTED_EDGE('',*,*,#33,.F.);
#295=ORIENTED_EDGE('',*,*,#137,.F.);
#296=ORIENTED_EDGE('',*,*,#106,.F.);
#297=ORIENTED_EDGE('',*,*,#73,.F.);
#298=EDGE_LOOP('',(#294,#295,#296,#297));
#299=FACE_BOUND('',#298,.T.);
#300=CARTESIAN_POINT('',(-0.175800026934239,-2.70170288389437,0.349939374063380));
#301=DIRECTION('',(-4.54469086383325E-17,-1.00000000000000,4.88427298954615E-16));
#302=DIRECTION('',(1.00000000000000,-4.54469086383325E-17,3.05201842267967E-65));
#303=AXIS2_PLACEMENT_3D('',#300,#301,#302);
#304=PLANE('',#303);
#305=ADVANCED_FACE('',(#293,#299),#304,.T.);
#306=ORIENTED_EDGE('',*,*,#253,.F.);
#307=ORIENTED_EDGE('',*,*,#277,.F.);
#308=ORIENTED_EDGE('',*,*,#182,.F.);
#309=ORIENTED_EDGE('',*,*,#220,.F.);
#310=EDGE_LOOP('',(#306,#307,#308,#309));
#311=FACE_OUTER_BOUND('',#310,.T.);
#312=ORIENTED_EDGE('',*,*,#121,.F.);
#313=ORIENTED_EDGE('',*,*,#145,.F.);
#314=ORIENTED_EDGE('',*,*,#50,.F.);
#315=ORIENTED_EDGE('',*,*,#88,.F.);
#316=EDGE_LOOP('',(#312,#313,#314,#315));
#317=FACE_BOUND('',#316,.T.);
#318=CARTESIAN_POINT('',(-0.175800026934239,3.29829711610563,0.349939374063377));
#319=DIRECTION('',(-4.54469086383325E-17,-1.00000000000000,4.88427298954615E-16));
#320=DIRECTION('',(1.00000000000000,-4.54469086383325E-17,3.05201842267967E-65));
#321=AXIS2_PLACEMENT_3D('',#318,#319,#320);
#322=PLANE('',#321);
#323=ADVANCED_FACE('',(#311,#317),#322,.F.);
#324=CLOSED_SHELL('',(#65,#98,#131,#155,#197,#230,#263,#287,#305,#323));
#325=MANIFOLD_SOLID_BREP('',#324);
#326=COLOUR_RGB('',1.00000000000000,0.00000000000000,0.00000000000000);
#327=FILL_AREA_STYLE_COLOUR('',#326);
#328=FILL_AREA_STYLE('',(#327));
#329=SURFACE_STYLE_FILL_AREA(#328);
#330=SURFACE_SIDE_STYLE('',(#329));
#331=SURFACE_STYLE_USAGE(.BOTH.,#330);
#332=PRESENTATION_STYLE_ASSIGNMENT((#331));
#333=STYLED_ITEM('',(#332),#325);
#334=ADVANCED_BREP_SHAPE_REPRESENTATION('',(#325,#23),#18);
#335=PRODUCT('', '', ' ',(#2));
#336=PRODUCT_DEFINITION_FORMATION_WITH_SPECIFIED_SOURCE (' ', ' ', #335, .NOT_KNOWN.) ;
#337=PRODUCT_CATEGORY('part','') ;
#338=PRODUCT_RELATED_PRODUCT_CATEGORY('detail', ' ', (#335)) ;
#339=PRODUCT_CATEGORY_RELATIONSHIP(' ', ' ', #337, #338);
#340=PRODUCT_DEFINITION('', '', #336, #1);
#341=PRODUCT_DEFINITION_SHAPE('NONE', 'NONE', #340);
#342=SHAPE_DEFINITION_REPRESENTATION(#341, #334);
#343=PRESENTATION_LAYER_ASSIGNMENT('1','Unnamed [1]',(#325));
#344=MECHANICAL_DESIGN_GEOMETRIC_PRESENTATION_REPRESENTATION('',(#333), #18);
ENDSEC;
END-ISO-10303-21;
