ISO-10303-21;
HEADER;
FILE_DESCRIPTION((''),'2;1');
FILE_NAME('C:/Program Files/Kubotek/KeyCreatorPro.2021.SP0/STEP/SG1559.STP', '2021-03-11T14:33:34',(''), (''), 'KCM Version 2.0.6974.6974', 'KeyCreator Pro', '');
FILE_SCHEMA(('AUTOMOTIVE_DESIGN'));
ENDSEC;
DATA;
#1=PRODUCT_DEFINITION_CONTEXT('',#4,'design');
#2=PRODUCT_CONTEXT('',#4,'mechanical');
#3=APPLICATION_PROTOCOL_DEFINITION('International Standard','automotive_design',2001,#4);
#4=APPLICATION_CONTEXT('automotive design');
#10=DIMENSIONAL_EXPONENTS(1.0,0.0,0.0,0.0,0.0,0.0,0.0);
#11=DIMENSIONAL_EXPONENTS(0.0,0.0,0.0,0.0,0.0,0.0,0.0);
#12=(NAMED_UNIT(#10)LENGTH_UNIT()SI_UNIT(.MILLI.,.METRE.));
#13=(NAMED_UNIT(#11)PLANE_ANGLE_UNIT()SI_UNIT($,.RADIAN.));
#14=(NAMED_UNIT(#11)SOLID_ANGLE_UNIT()SI_UNIT($,.STERADIAN.));
#15=LENGTH_MEASURE_WITH_UNIT(LENGTH_MEASURE(25.4),#12);
#16= (CONVERSION_BASED_UNIT('INCH',#15)LENGTH_UNIT()NAMED_UNIT(#10));
#17=UNCERTAINTY_MEASURE_WITH_UNIT(LENGTH_MEASURE(1.0E-006),#16,'','');
#18=(GEOMETRIC_REPRESENTATION_CONTEXT(3)GLOBAL_UNCERTAINTY_ASSIGNED_CONTEXT((#17))GLOBAL_UNIT_ASSIGNED_CONTEXT((#16,#13,#14))REPRESENTATION_CONTEXT('NONE','WORKSPACE'));
#20=CARTESIAN_POINT('',(0.00000000000000,0.00000000000000,0.00000000000000));
#21=DIRECTION('',(0.00000000000000,0.00000000000000,1.00000000000000));
#22=DIRECTION('',(1.00000000000000,0.00000000000000,0.00000000000000));
#23=AXIS2_PLACEMENT_3D('',#20,#21,#22);
#24=CARTESIAN_POINT('',(9.85526729221220,6.34916169272694,-0.125000000000000));
#25=VERTEX_POINT('',#24);
#26=CARTESIAN_POINT('',(9.85526729221220,6.34916169272694,-0.0625000000000000));
#27=VERTEX_POINT('',#26);
#28=CARTESIAN_POINT('',(9.85526729221220,6.34916169272694,-0.125000000000000));
#29=DIRECTION('',(0.00000000000000,0.00000000000000,1.00000000000000));
#30=VECTOR('',#29,1.00000000000000);
#31=LINE('',#28,#30);
#32=EDGE_CURVE('',#25,#27,#31,.T.);
#33=ORIENTED_EDGE('',*,*,#32,.T.);
#34=CARTESIAN_POINT('',(9.85526729221220,0.349161692726937,-0.0625000000000000));
#35=VERTEX_POINT('',#34);
#36=CARTESIAN_POINT('',(9.85526729221220,3.34916169272694,-0.0625000000000000));
#37=DIRECTION('',(0.00000000000000,1.00000000000000,0.00000000000000));
#38=VECTOR('',#37,1.00000000000000);
#39=LINE('',#36,#38);
#40=EDGE_CURVE('',#35,#27,#39,.T.);
#41=ORIENTED_EDGE('',*,*,#40,.F.);
#42=CARTESIAN_POINT('',(9.85526729221220,0.349161692726937,-0.125000000000000));
#43=VERTEX_POINT('',#42);
#44=CARTESIAN_POINT('',(9.85526729221220,0.349161692726937,-0.125000000000000));
#45=DIRECTION('',(-0.00000000000000,-0.00000000000000,-1.00000000000000));
#46=VECTOR('',#45,1.00000000000000);
#47=LINE('',#44,#46);
#48=EDGE_CURVE('',#35,#43,#47,.T.);
#49=ORIENTED_EDGE('',*,*,#48,.T.);
#50=CARTESIAN_POINT('',(9.85526729221220,3.34916169272694,-0.125000000000000));
#51=DIRECTION('',(0.00000000000000,1.00000000000000,0.00000000000000));
#52=VECTOR('',#51,1.00000000000000);
#53=LINE('',#50,#52);
#54=EDGE_CURVE('',#43,#25,#53,.T.);
#55=ORIENTED_EDGE('',*,*,#54,.T.);
#56=EDGE_LOOP('',(#33,#41,#49,#55));
#57=FACE_OUTER_BOUND('',#56,.T.);
#58=CARTESIAN_POINT('',(9.85526729221220,3.34916169272694,-0.0937500000000000));
#59=DIRECTION('',(1.00000000000000,0.00000000000000,0.00000000000000));
#60=DIRECTION('',(-0.00000000000000,-0.00000000000000,-1.00000000000000));
#61=AXIS2_PLACEMENT_3D('',#58,#59,#60);
#62=PLANE('',#61);
#63=ADVANCED_FACE('',(#57),#62,.T.);
#64=CARTESIAN_POINT('',(7.73026729221220,6.34916169272694,-0.0625000000000000));
#65=VERTEX_POINT('',#64);
#66=CARTESIAN_POINT('',(7.73026729221220,6.34916169272694,-0.0625000000000000));
#67=DIRECTION('',(-1.00000000000000,-0.00000000000000,-0.00000000000000));
#68=VECTOR('',#67,1.00000000000000);
#69=LINE('',#66,#68);
#70=EDGE_CURVE('',#27,#65,#69,.T.);
#71=ORIENTED_EDGE('',*,*,#70,.T.);
#72=CARTESIAN_POINT('',(7.73026729221220,0.349161692726937,-0.0625000000000000));
#73=VERTEX_POINT('',#72);
#74=CARTESIAN_POINT('',(7.73026729221220,3.34916169272694,-0.0625000000000000));
#75=DIRECTION('',(0.00000000000000,-1.00000000000000,0.00000000000000));
#76=VECTOR('',#75,1.00000000000000);
#77=LINE('',#74,#76);
#78=EDGE_CURVE('',#65,#73,#77,.T.);
#79=ORIENTED_EDGE('',*,*,#78,.T.);
#80=CARTESIAN_POINT('',(7.73026729221220,0.349161692726937,-0.0625000000000000));
#81=DIRECTION('',(1.00000000000000,0.00000000000000,0.00000000000000));
#82=VECTOR('',#81,1.00000000000000);
#83=LINE('',#80,#82);
#84=EDGE_CURVE('',#73,#35,#83,.T.);
#85=ORIENTED_EDGE('',*,*,#84,.T.);
#86=ORIENTED_EDGE('',*,*,#40,.T.);
#87=EDGE_LOOP('',(#71,#79,#85,#86));
#88=FACE_OUTER_BOUND('',#87,.T.);
#89=CARTESIAN_POINT('',(8.79276729221220,3.34916169272694,-0.0625000000000000));
#90=DIRECTION('',(0.00000000000000,0.00000000000000,1.00000000000000));
#91=DIRECTION('',(1.00000000000000,0.00000000000000,0.00000000000000));
#92=AXIS2_PLACEMENT_3D('',#89,#90,#91);
#93=PLANE('',#92);
#94=ADVANCED_FACE('',(#88),#93,.T.);
#95=CARTESIAN_POINT('',(7.73026729221220,6.34916169272694,-0.125000000000000));
#96=VERTEX_POINT('',#95);
#97=CARTESIAN_POINT('',(7.73026729221220,6.34916169272694,-0.0625000000000000));
#98=DIRECTION('',(0.00000000000000,0.00000000000000,-1.00000000000000));
#99=VECTOR('',#98,1.00000000000000);
#100=LINE('',#97,#99);
#101=EDGE_CURVE('',#65,#96,#100,.T.);
#102=ORIENTED_EDGE('',*,*,#101,.T.);
#103=CARTESIAN_POINT('',(7.73026729221220,0.349161692726937,-0.125000000000000));
#104=VERTEX_POINT('',#103);
#105=CARTESIAN_POINT('',(7.73026729221220,3.34916169272694,-0.125000000000000));
#106=DIRECTION('',(0.00000000000000,-1.00000000000000,0.00000000000000));
#107=VECTOR('',#106,1.00000000000000);
#108=LINE('',#105,#107);
#109=EDGE_CURVE('',#96,#104,#108,.T.);
#110=ORIENTED_EDGE('',*,*,#109,.T.);
#111=CARTESIAN_POINT('',(7.73026729221220,0.349161692726937,-0.0625000000000000));
#112=DIRECTION('',(0.00000000000000,0.00000000000000,1.00000000000000));
#113=VECTOR('',#112,1.00000000000000);
#114=LINE('',#111,#113);
#115=EDGE_CURVE('',#104,#73,#114,.T.);
#116=ORIENTED_EDGE('',*,*,#115,.T.);
#117=ORIENTED_EDGE('',*,*,#78,.F.);
#118=EDGE_LOOP('',(#102,#110,#116,#117));
#119=FACE_OUTER_BOUND('',#118,.T.);
#120=CARTESIAN_POINT('',(7.73026729221220,3.34916169272694,-0.0937500000000000));
#121=DIRECTION('',(-1.00000000000000,0.00000000000000,0.00000000000000));
#122=DIRECTION('',(0.00000000000000,0.00000000000000,1.00000000000000));
#123=AXIS2_PLACEMENT_3D('',#120,#121,#122);
#124=PLANE('',#123);
#125=ADVANCED_FACE('',(#119),#124,.T.);
#126=CARTESIAN_POINT('',(7.73026729221220,6.34916169272694,-0.125000000000000));
#127=DIRECTION('',(1.00000000000000,0.00000000000000,0.00000000000000));
#128=VECTOR('',#127,1.00000000000000);
#129=LINE('',#126,#128);
#130=EDGE_CURVE('',#96,#25,#129,.T.);
#131=ORIENTED_EDGE('',*,*,#130,.T.);
#132=ORIENTED_EDGE('',*,*,#54,.F.);
#133=CARTESIAN_POINT('',(7.73026729221220,0.349161692726937,-0.125000000000000));
#134=DIRECTION('',(-1.00000000000000,-0.00000000000000,-0.00000000000000));
#135=VECTOR('',#134,1.00000000000000);
#136=LINE('',#133,#135);
#137=EDGE_CURVE('',#43,#104,#136,.T.);
#138=ORIENTED_EDGE('',*,*,#137,.T.);
#139=ORIENTED_EDGE('',*,*,#109,.F.);
#140=EDGE_LOOP('',(#131,#132,#138,#139));
#141=FACE_OUTER_BOUND('',#140,.T.);
#142=CARTESIAN_POINT('',(8.79276729221220,3.34916169272694,-0.125000000000000));
#143=DIRECTION('',(0.00000000000000,0.00000000000000,-1.00000000000000));
#144=DIRECTION('',(-1.00000000000000,-0.00000000000000,-0.00000000000000));
#145=AXIS2_PLACEMENT_3D('',#142,#143,#144);
#146=PLANE('',#145);
#147=ADVANCED_FACE('',(#141),#146,.T.);
#148=ORIENTED_EDGE('',*,*,#32,.F.);
#149=ORIENTED_EDGE('',*,*,#130,.F.);
#150=ORIENTED_EDGE('',*,*,#101,.F.);
#151=ORIENTED_EDGE('',*,*,#70,.F.);
#152=EDGE_LOOP('',(#148,#149,#150,#151));
#153=FACE_OUTER_BOUND('',#152,.T.);
#154=CARTESIAN_POINT('',(8.39395791721221,6.34916169272694,-0.125000000000000));
#155=DIRECTION('',(0.00000000000000,1.00000000000000,0.00000000000000));
#156=DIRECTION('',(-1.00000000000000,0.00000000000000,0.00000000000000));
#157=AXIS2_PLACEMENT_3D('',#154,#155,#156);
#158=PLANE('',#157);
#159=ADVANCED_FACE('',(#153),#158,.T.);
#160=ORIENTED_EDGE('',*,*,#115,.F.);
#161=ORIENTED_EDGE('',*,*,#137,.F.);
#162=ORIENTED_EDGE('',*,*,#48,.F.);
#163=ORIENTED_EDGE('',*,*,#84,.F.);
#164=EDGE_LOOP('',(#160,#161,#162,#163));
#165=FACE_OUTER_BOUND('',#164,.T.);
#166=CARTESIAN_POINT('',(8.39395791721221,0.349161692726937,-0.125000000000000));
#167=DIRECTION('',(0.00000000000000,1.00000000000000,0.00000000000000));
#168=DIRECTION('',(-1.00000000000000,0.00000000000000,0.00000000000000));
#169=AXIS2_PLACEMENT_3D('',#166,#167,#168);
#170=PLANE('',#169);
#171=ADVANCED_FACE('',(#165),#170,.F.);
#172=CLOSED_SHELL('',(#63,#94,#125,#147,#159,#171));
#173=MANIFOLD_SOLID_BREP('',#172);
#174=COLOUR_RGB('',0.00000000000000,1.00000000000000,0.00000000000000);
#175=FILL_AREA_STYLE_COLOUR('',#174);
#176=FILL_AREA_STYLE('',(#175));
#177=SURFACE_STYLE_FILL_AREA(#176);
#178=SURFACE_SIDE_STYLE('',(#177));
#179=SURFACE_STYLE_USAGE(.BOTH.,#178);
#180=PRESENTATION_STYLE_ASSIGNMENT((#179));
#181=STYLED_ITEM('',(#180),#173);
#182=CARTESIAN_POINT('',(9.91776729221220,6.34916169272694,0.0625000000000000));
#183=VERTEX_POINT('',#182);
#184=CARTESIAN_POINT('',(7.66776729221220,6.34916169272694,0.0625000000000000));
#185=VERTEX_POINT('',#184);
#186=CARTESIAN_POINT('',(9.91776729221220,6.34916169272694,0.0625000000000000));
#187=DIRECTION('',(-1.00000000000000,0.00000000000000,0.00000000000000));
#188=VECTOR('',#187,1.00000000000000);
#189=LINE('',#186,#188);
#190=EDGE_CURVE('',#183,#185,#189,.T.);
#191=ORIENTED_EDGE('',*,*,#190,.T.);
#192=CARTESIAN_POINT('',(7.66776729221220,0.349161692726937,0.0625000000000000));
#193=VERTEX_POINT('',#192);
#194=CARTESIAN_POINT('',(7.66776729221220,3.34916169272694,0.0625000000000000));
#195=DIRECTION('',(0.00000000000000,1.00000000000000,0.00000000000000));
#196=VECTOR('',#195,1.00000000000000);
#197=LINE('',#194,#196);
#198=EDGE_CURVE('',#193,#185,#197,.T.);
#199=ORIENTED_EDGE('',*,*,#198,.F.);
#200=CARTESIAN_POINT('',(9.91776729221220,0.349161692726937,0.0625000000000000));
#201=VERTEX_POINT('',#200);
#202=CARTESIAN_POINT('',(9.91776729221220,0.349161692726937,0.0625000000000000));
#203=DIRECTION('',(1.00000000000000,0.00000000000000,0.00000000000000));
#204=VECTOR('',#203,1.00000000000000);
#205=LINE('',#202,#204);
#206=EDGE_CURVE('',#193,#201,#205,.T.);
#207=ORIENTED_EDGE('',*,*,#206,.T.);
#208=CARTESIAN_POINT('',(9.91776729221220,3.34916169272694,0.0625000000000000));
#209=DIRECTION('',(0.00000000000000,1.00000000000000,0.00000000000000));
#210=VECTOR('',#209,1.00000000000000);
#211=LINE('',#208,#210);
#212=EDGE_CURVE('',#201,#183,#211,.T.);
#213=ORIENTED_EDGE('',*,*,#212,.T.);
#214=EDGE_LOOP('',(#191,#199,#207,#213));
#215=FACE_OUTER_BOUND('',#214,.T.);
#216=CARTESIAN_POINT('',(8.79276729221220,3.34916169272694,0.0625000000000000));
#217=DIRECTION('',(0.00000000000000,-0.00000000000000,1.00000000000000));
#218=DIRECTION('',(1.00000000000000,-0.00000000000000,-0.00000000000000));
#219=AXIS2_PLACEMENT_3D('',#216,#217,#218);
#220=PLANE('',#219);
#221=ADVANCED_FACE('',(#215),#220,.T.);
#222=CARTESIAN_POINT('',(7.66776729221220,6.34916169272694,-0.0625000000000000));
#223=VERTEX_POINT('',#222);
#224=CARTESIAN_POINT('',(7.66776729221220,6.34916169272694,0.0625000000000000));
#225=DIRECTION('',(0.00000000000000,0.00000000000000,-1.00000000000000));
#226=VECTOR('',#225,1.00000000000000);
#227=LINE('',#224,#226);
#228=EDGE_CURVE('',#185,#223,#227,.T.);
#229=ORIENTED_EDGE('',*,*,#228,.T.);
#230=CARTESIAN_POINT('',(7.66776729221220,0.349161692726937,-0.0625000000000000));
#231=VERTEX_POINT('',#230);
#232=CARTESIAN_POINT('',(7.66776729221220,3.34916169272694,-0.0625000000000000));
#233=DIRECTION('',(0.00000000000000,-1.00000000000000,0.00000000000000));
#234=VECTOR('',#233,1.00000000000000);
#235=LINE('',#232,#234);
#236=EDGE_CURVE('',#223,#231,#235,.T.);
#237=ORIENTED_EDGE('',*,*,#236,.T.);
#238=CARTESIAN_POINT('',(7.66776729221220,0.349161692726937,0.0625000000000000));
#239=DIRECTION('',(0.00000000000000,0.00000000000000,1.00000000000000));
#240=VECTOR('',#239,1.00000000000000);
#241=LINE('',#238,#240);
#242=EDGE_CURVE('',#231,#193,#241,.T.);
#243=ORIENTED_EDGE('',*,*,#242,.T.);
#244=ORIENTED_EDGE('',*,*,#198,.T.);
#245=EDGE_LOOP('',(#229,#237,#243,#244));
#246=FACE_OUTER_BOUND('',#245,.T.);
#247=CARTESIAN_POINT('',(7.66776729221220,3.34916169272694,0.00000000000000));
#248=DIRECTION('',(-1.00000000000000,0.00000000000000,0.00000000000000));
#249=DIRECTION('',(-0.00000000000000,-0.00000000000000,1.00000000000000));
#250=AXIS2_PLACEMENT_3D('',#247,#248,#249);
#251=PLANE('',#250);
#252=ADVANCED_FACE('',(#246),#251,.T.);
#253=CARTESIAN_POINT('',(9.91776729221220,6.34916169272694,-0.0625000000000000));
#254=VERTEX_POINT('',#253);
#255=CARTESIAN_POINT('',(7.66776729221220,6.34916169272694,-0.0625000000000000));
#256=DIRECTION('',(1.00000000000000,0.00000000000000,0.00000000000000));
#257=VECTOR('',#256,1.00000000000000);
#258=LINE('',#255,#257);
#259=EDGE_CURVE('',#223,#254,#258,.T.);
#260=ORIENTED_EDGE('',*,*,#259,.T.);
#261=CARTESIAN_POINT('',(9.91776729221220,0.349161692726937,-0.0625000000000000));
#262=VERTEX_POINT('',#261);
#263=CARTESIAN_POINT('',(9.91776729221220,3.34916169272694,-0.0625000000000000));
#264=DIRECTION('',(0.00000000000000,-1.00000000000000,0.00000000000000));
#265=VECTOR('',#264,1.00000000000000);
#266=LINE('',#263,#265);
#267=EDGE_CURVE('',#254,#262,#266,.T.);
#268=ORIENTED_EDGE('',*,*,#267,.T.);
#269=CARTESIAN_POINT('',(7.66776729221220,0.349161692726937,-0.0625000000000000));
#270=DIRECTION('',(-1.00000000000000,-0.00000000000000,-0.00000000000000));
#271=VECTOR('',#270,1.00000000000000);
#272=LINE('',#269,#271);
#273=EDGE_CURVE('',#262,#231,#272,.T.);
#274=ORIENTED_EDGE('',*,*,#273,.T.);
#275=ORIENTED_EDGE('',*,*,#236,.F.);
#276=EDGE_LOOP('',(#260,#268,#274,#275));
#277=FACE_OUTER_BOUND('',#276,.T.);
#278=CARTESIAN_POINT('',(8.79276729221220,3.34916169272694,-0.0625000000000000));
#279=DIRECTION('',(0.00000000000000,0.00000000000000,-1.00000000000000));
#280=DIRECTION('',(-1.00000000000000,-0.00000000000000,-0.00000000000000));
#281=AXIS2_PLACEMENT_3D('',#278,#279,#280);
#282=PLANE('',#281);
#283=ADVANCED_FACE('',(#277),#282,.T.);
#284=CARTESIAN_POINT('',(9.91776729221220,6.34916169272694,-0.0625000000000000));
#285=DIRECTION('',(0.00000000000000,0.00000000000000,1.00000000000000));
#286=VECTOR('',#285,1.00000000000000);
#287=LINE('',#284,#286);
#288=EDGE_CURVE('',#254,#183,#287,.T.);
#289=ORIENTED_EDGE('',*,*,#288,.T.);
#290=ORIENTED_EDGE('',*,*,#212,.F.);
#291=CARTESIAN_POINT('',(9.91776729221220,0.349161692726937,-0.0625000000000000));
#292=DIRECTION('',(-0.00000000000000,-0.00000000000000,-1.00000000000000));
#293=VECTOR('',#292,1.00000000000000);
#294=LINE('',#291,#293);
#295=EDGE_CURVE('',#201,#262,#294,.T.);
#296=ORIENTED_EDGE('',*,*,#295,.T.);
#297=ORIENTED_EDGE('',*,*,#267,.F.);
#298=EDGE_LOOP('',(#289,#290,#296,#297));
#299=FACE_OUTER_BOUND('',#298,.T.);
#300=CARTESIAN_POINT('',(9.91776729221220,3.34916169272694,0.00000000000000));
#301=DIRECTION('',(1.00000000000000,0.00000000000000,0.00000000000000));
#302=DIRECTION('',(-0.00000000000000,-0.00000000000000,-1.00000000000000));
#303=AXIS2_PLACEMENT_3D('',#300,#301,#302);
#304=PLANE('',#303);
#305=ADVANCED_FACE('',(#299),#304,.T.);
#306=ORIENTED_EDGE('',*,*,#190,.F.);
#307=ORIENTED_EDGE('',*,*,#288,.F.);
#308=ORIENTED_EDGE('',*,*,#259,.F.);
#309=ORIENTED_EDGE('',*,*,#228,.F.);
#310=EDGE_LOOP('',(#306,#307,#308,#309));
#311=FACE_OUTER_BOUND('',#310,.T.);
#312=CARTESIAN_POINT('',(9.91776729221220,6.34916169272694,-0.0234593750000000));
#313=DIRECTION('',(0.00000000000000,1.00000000000000,0.00000000000000));
#314=DIRECTION('',(-1.00000000000000,0.00000000000000,0.00000000000000));
#315=AXIS2_PLACEMENT_3D('',#312,#313,#314);
#316=PLANE('',#315);
#317=ADVANCED_FACE('',(#311),#316,.T.);
#318=ORIENTED_EDGE('',*,*,#273,.F.);
#319=ORIENTED_EDGE('',*,*,#295,.F.);
#320=ORIENTED_EDGE('',*,*,#206,.F.);
#321=ORIENTED_EDGE('',*,*,#242,.F.);
#322=EDGE_LOOP('',(#318,#319,#320,#321));
#323=FACE_OUTER_BOUND('',#322,.T.);
#324=CARTESIAN_POINT('',(9.91776729221220,0.349161692726937,-0.0234593750000000));
#325=DIRECTION('',(0.00000000000000,1.00000000000000,0.00000000000000));
#326=DIRECTION('',(-1.00000000000000,0.00000000000000,0.00000000000000));
#327=AXIS2_PLACEMENT_3D('',#324,#325,#326);
#328=PLANE('',#327);
#329=ADVANCED_FACE('',(#323),#328,.F.);
#330=CLOSED_SHELL('',(#221,#252,#283,#305,#317,#329));
#331=MANIFOLD_SOLID_BREP('',#330);
#332=COLOUR_RGB('',1.00000000000000,0.00000000000000,0.00000000000000);
#333=FILL_AREA_STYLE_COLOUR('',#332);
#334=FILL_AREA_STYLE('',(#333));
#335=SURFACE_STYLE_FILL_AREA(#334);
#336=SURFACE_SIDE_STYLE('',(#335));
#337=SURFACE_STYLE_USAGE(.BOTH.,#336);
#338=PRESENTATION_STYLE_ASSIGNMENT((#337));
#339=STYLED_ITEM('',(#338),#331);
#340=ADVANCED_BREP_SHAPE_REPRESENTATION('',(#173,#331,#23),#18);
#341=PRODUCT('', '', ' ',(#2));
#342=PRODUCT_DEFINITION_FORMATION_WITH_SPECIFIED_SOURCE (' ', ' ', #341, .NOT_KNOWN.) ;
#343=PRODUCT_CATEGORY('part','') ;
#344=PRODUCT_RELATED_PRODUCT_CATEGORY('detail', ' ', (#341)) ;
#345=PRODUCT_CATEGORY_RELATIONSHIP(' ', ' ', #343, #344);
#346=PRODUCT_DEFINITION('', '', #342, #1);
#347=PRODUCT_DEFINITION_SHAPE('NONE', 'NONE', #346);
#348=SHAPE_DEFINITION_REPRESENTATION(#347, #340);
#349=PRESENTATION_LAYER_ASSIGNMENT('1','Unnamed [1]',(#173,#331));
#350=MECHANICAL_DESIGN_GEOMETRIC_PRESENTATION_REPRESENTATION('',(#181, #339), #18);
ENDSEC;
END-ISO-10303-21;
