ISO-10303-21;
HEADER;
FILE_DESCRIPTION((''),'2;1');
FILE_NAME('C:/Program Files/Kubotek/KeyCreatorPro.2021.SP0/STEP/SG1545.STP', '2021-03-03T21:03:00',(''), (''), 'KCM Version 2.0.6974.6974', 'KeyCreator Pro', '');
FILE_SCHEMA(('AUTOMOTIVE_DESIGN'));
ENDSEC;
DATA;
#1=PRODUCT_DEFINITION_CONTEXT('',#4,'design');
#2=PRODUCT_CONTEXT('',#4,'mechanical');
#3=APPLICATION_PROTOCOL_DEFINITION('International Standard','automotive_design',2001,#4);
#4=APPLICATION_CONTEXT('automotive design');
#10=DIMENSIONAL_EXPONENTS(1.0,0.0,0.0,0.0,0.0,0.0,0.0);
#11=DIMENSIONAL_EXPONENTS(0.0,0.0,0.0,0.0,0.0,0.0,0.0);
#12=(NAMED_UNIT(#10)LENGTH_UNIT()SI_UNIT(.MILLI.,.METRE.));
#13=(NAMED_UNIT(#11)PLANE_ANGLE_UNIT()SI_UNIT($,.RADIAN.));
#14=(NAMED_UNIT(#11)SOLID_ANGLE_UNIT()SI_UNIT($,.STERADIAN.));
#15=LENGTH_MEASURE_WITH_UNIT(LENGTH_MEASURE(25.4),#12);
#16= (CONVERSION_BASED_UNIT('INCH',#15)LENGTH_UNIT()NAMED_UNIT(#10));
#17=UNCERTAINTY_MEASURE_WITH_UNIT(LENGTH_MEASURE(1.0E-006),#16,'','');
#18=(GEOMETRIC_REPRESENTATION_CONTEXT(3)GLOBAL_UNCERTAINTY_ASSIGNED_CONTEXT((#17))GLOBAL_UNIT_ASSIGNED_CONTEXT((#16,#13,#14))REPRESENTATION_CONTEXT('NONE','WORKSPACE'));
#20=CARTESIAN_POINT('',(0.00000000000000,0.00000000000000,0.00000000000000));
#21=DIRECTION('',(0.00000000000000,0.00000000000000,1.00000000000000));
#22=DIRECTION('',(1.00000000000000,0.00000000000000,0.00000000000000));
#23=AXIS2_PLACEMENT_3D('',#20,#21,#22);
#24=CARTESIAN_POINT('',(-0.00200000000000000,3.00000000000000,0.777497427648477));
#25=VERTEX_POINT('',#24);
#26=CARTESIAN_POINT('',(0.00200000000000000,3.00000000000000,0.777497427648477));
#27=VERTEX_POINT('',#26);
#28=CARTESIAN_POINT('',(0.00000000000000,3.00000000000000,-2.22044604925031E-16));
#29=DIRECTION('',(0.00000000000000,-1.00000000000000,6.12323399573677E-17));
#30=DIRECTION('',(1.00000000000000,0.00000000000000,0.00000000000000));
#31=AXIS2_PLACEMENT_3D('',#28,#29,#30);
#32=CIRCLE('',#31,0.777500000000000);
#33=EDGE_CURVE('',#25,#27,#32,.T.);
#34=ORIENTED_EDGE('',*,*,#33,.T.);
#35=CARTESIAN_POINT('',(0.00200000000000000,-3.00000000000000,0.777497427648478));
#36=VERTEX_POINT('',#35);
#37=CARTESIAN_POINT('',(0.00200000000000000,4.76079868057504E-17,0.777497427648478));
#38=DIRECTION('',(0.00000000000000,-1.00000000000000,7.40148683083438E-17));
#39=VECTOR('',#38,1.00000000000000);
#40=LINE('',#37,#39);
#41=EDGE_CURVE('',#27,#36,#40,.T.);
#42=ORIENTED_EDGE('',*,*,#41,.T.);
#43=CARTESIAN_POINT('',(-0.00200000000000000,-3.00000000000000,0.777497427648478));
#44=VERTEX_POINT('',#43);
#45=CARTESIAN_POINT('',(0.00000000000000,-3.00000000000000,2.22044604925031E-16));
#46=DIRECTION('',(0.00000000000000,1.00000000000000,-6.12323399573677E-17));
#47=DIRECTION('',(1.00000000000000,0.00000000000000,0.00000000000000));
#48=AXIS2_PLACEMENT_3D('',#45,#46,#47);
#49=CIRCLE('',#48,0.777500000000000);
#50=EDGE_CURVE('',#36,#44,#49,.T.);
#51=ORIENTED_EDGE('',*,*,#50,.T.);
#52=CARTESIAN_POINT('',(-0.00200000000000000,4.76079868057504E-17,0.777497427648478));
#53=DIRECTION('',(0.00000000000000,1.00000000000000,-7.40148683083438E-17));
#54=VECTOR('',#53,1.00000000000000);
#55=LINE('',#52,#54);
#56=EDGE_CURVE('',#44,#25,#55,.T.);
#57=ORIENTED_EDGE('',*,*,#56,.T.);
#58=EDGE_LOOP('',(#34,#42,#51,#57));
#59=FACE_OUTER_BOUND('',#58,.T.);
#60=CARTESIAN_POINT('',(0.00000000000000,0.00000000000000,0.00000000000000));
#61=DIRECTION('',(0.00000000000000,1.00000000000000,-7.40148683083438E-17));
#62=DIRECTION('',(0.00000000000000,0.00000000000000,1.00000000000000));
#63=AXIS2_PLACEMENT_3D('',#60,#61,#62);
#64=CYLINDRICAL_SURFACE('',#63,0.777500000000000);
#65=ADVANCED_FACE('',(#59),#64,.T.);
#66=CARTESIAN_POINT('',(0.00200000000000000,3.00000000000000,0.687497090902936));
#67=VERTEX_POINT('',#66);
#68=CARTESIAN_POINT('',(0.00200000000000000,3.00000000000000,0.687497090902936));
#69=DIRECTION('',(-0.00000000000000,-6.12323399573676E-17,-1.00000000000000));
#70=VECTOR('',#69,1.00000000000000);
#71=LINE('',#68,#70);
#72=EDGE_CURVE('',#27,#67,#71,.T.);
#73=ORIENTED_EDGE('',*,*,#72,.T.);
#74=CARTESIAN_POINT('',(0.00200000000000000,-3.00000000000000,0.687497090902936));
#75=VERTEX_POINT('',#74);
#76=CARTESIAN_POINT('',(0.00200000000000000,4.20970555898699E-17,0.687497090902936));
#77=DIRECTION('',(0.00000000000000,1.00000000000000,-7.40148683083438E-17));
#78=VECTOR('',#77,1.00000000000000);
#79=LINE('',#76,#78);
#80=EDGE_CURVE('',#75,#67,#79,.T.);
#81=ORIENTED_EDGE('',*,*,#80,.F.);
#82=CARTESIAN_POINT('',(0.00200000000000000,-3.00000000000000,0.687497090902936));
#83=DIRECTION('',(0.00000000000000,6.12323399573676E-17,1.00000000000000));
#84=VECTOR('',#83,1.00000000000000);
#85=LINE('',#82,#84);
#86=EDGE_CURVE('',#75,#36,#85,.T.);
#87=ORIENTED_EDGE('',*,*,#86,.T.);
#88=ORIENTED_EDGE('',*,*,#41,.F.);
#89=EDGE_LOOP('',(#73,#81,#87,#88));
#90=FACE_OUTER_BOUND('',#89,.T.);
#91=CARTESIAN_POINT('',(0.00200000000000000,4.48525211978102E-17,0.732497259275707));
#92=DIRECTION('',(-1.00000000000000,0.00000000000000,0.00000000000000));
#93=DIRECTION('',(0.00000000000000,6.12323399573676E-17,1.00000000000000));
#94=AXIS2_PLACEMENT_3D('',#91,#92,#93);
#95=PLANE('',#94);
#96=ADVANCED_FACE('',(#90),#95,.T.);
#97=CARTESIAN_POINT('',(-0.00200000000000000,3.00000000000000,0.687497090902936));
#98=VERTEX_POINT('',#97);
#99=CARTESIAN_POINT('',(0.00000000000000,3.00000000000000,-2.22044604925031E-16));
#100=DIRECTION('',(0.00000000000000,1.00000000000000,-6.12323399573677E-17));
#101=DIRECTION('',(1.00000000000000,0.00000000000000,0.00000000000000));
#102=AXIS2_PLACEMENT_3D('',#99,#100,#101);
#103=CIRCLE('',#102,0.687500000000000);
#104=EDGE_CURVE('',#67,#98,#103,.T.);
#105=ORIENTED_EDGE('',*,*,#104,.T.);
#106=CARTESIAN_POINT('',(-0.00200000000000000,-3.00000000000000,0.687497090902936));
#107=VERTEX_POINT('',#106);
#108=CARTESIAN_POINT('',(-0.00200000000000000,4.20970555898699E-17,0.687497090902936));
#109=DIRECTION('',(0.00000000000000,-1.00000000000000,7.40148683083438E-17));
#110=VECTOR('',#109,1.00000000000000);
#111=LINE('',#108,#110);
#112=EDGE_CURVE('',#98,#107,#111,.T.);
#113=ORIENTED_EDGE('',*,*,#112,.T.);
#114=CARTESIAN_POINT('',(0.00000000000000,-3.00000000000000,2.22044604925031E-16));
#115=DIRECTION('',(0.00000000000000,-1.00000000000000,6.12323399573677E-17));
#116=DIRECTION('',(1.00000000000000,0.00000000000000,0.00000000000000));
#117=AXIS2_PLACEMENT_3D('',#114,#115,#116);
#118=CIRCLE('',#117,0.687500000000000);
#119=EDGE_CURVE('',#107,#75,#118,.T.);
#120=ORIENTED_EDGE('',*,*,#119,.T.);
#121=ORIENTED_EDGE('',*,*,#80,.T.);
#122=EDGE_LOOP('',(#105,#113,#120,#121));
#123=FACE_OUTER_BOUND('',#122,.T.);
#124=CARTESIAN_POINT('',(0.00000000000000,0.00000000000000,0.00000000000000));
#125=DIRECTION('',(0.00000000000000,1.00000000000000,-7.40148683083438E-17));
#126=DIRECTION('',(0.00000000000000,0.00000000000000,1.00000000000000));
#127=AXIS2_PLACEMENT_3D('',#124,#125,#126);
#128=CYLINDRICAL_SURFACE('',#127,0.687500000000000);
#129=ADVANCED_FACE('',(#123),#128,.F.);
#130=CARTESIAN_POINT('',(-0.00200000000000000,3.00000000000000,0.687497090902936));
#131=DIRECTION('',(0.00000000000000,6.12323399573676E-17,1.00000000000000));
#132=VECTOR('',#131,1.00000000000000);
#133=LINE('',#130,#132);
#134=EDGE_CURVE('',#98,#25,#133,.T.);
#135=ORIENTED_EDGE('',*,*,#134,.T.);
#136=ORIENTED_EDGE('',*,*,#56,.F.);
#137=CARTESIAN_POINT('',(-0.00200000000000000,-3.00000000000000,0.687497090902936));
#138=DIRECTION('',(-0.00000000000000,-6.12323399573676E-17,-1.00000000000000));
#139=VECTOR('',#138,1.00000000000000);
#140=LINE('',#137,#139);
#141=EDGE_CURVE('',#44,#107,#140,.T.);
#142=ORIENTED_EDGE('',*,*,#141,.T.);
#143=ORIENTED_EDGE('',*,*,#112,.F.);
#144=EDGE_LOOP('',(#135,#136,#142,#143));
#145=FACE_OUTER_BOUND('',#144,.T.);
#146=CARTESIAN_POINT('',(-0.00200000000000000,4.48525211978102E-17,0.732497259275707));
#147=DIRECTION('',(1.00000000000000,-0.00000000000000,0.00000000000000));
#148=DIRECTION('',(-0.00000000000000,-6.12323399573676E-17,-1.00000000000000));
#149=AXIS2_PLACEMENT_3D('',#146,#147,#148);
#150=PLANE('',#149);
#151=ADVANCED_FACE('',(#145),#150,.T.);
#152=ORIENTED_EDGE('',*,*,#33,.F.);
#153=ORIENTED_EDGE('',*,*,#134,.F.);
#154=ORIENTED_EDGE('',*,*,#104,.F.);
#155=ORIENTED_EDGE('',*,*,#72,.F.);
#156=EDGE_LOOP('',(#152,#153,#154,#155));
#157=FACE_OUTER_BOUND('',#156,.T.);
#158=CARTESIAN_POINT('',(-0.00200000000000000,3.00000000000000,0.715606446076987));
#159=DIRECTION('',(0.00000000000000,1.00000000000000,-6.12323399573676E-17));
#160=DIRECTION('',(-1.00000000000000,0.00000000000000,0.00000000000000));
#161=AXIS2_PLACEMENT_3D('',#158,#159,#160);
#162=PLANE('',#161);
#163=ADVANCED_FACE('',(#157),#162,.T.);
#164=ORIENTED_EDGE('',*,*,#119,.F.);
#165=ORIENTED_EDGE('',*,*,#141,.F.);
#166=ORIENTED_EDGE('',*,*,#50,.F.);
#167=ORIENTED_EDGE('',*,*,#86,.F.);
#168=EDGE_LOOP('',(#164,#165,#166,#167));
#169=FACE_OUTER_BOUND('',#168,.T.);
#170=CARTESIAN_POINT('',(-0.00200000000000000,-3.00000000000000,0.715606446076988));
#171=DIRECTION('',(0.00000000000000,1.00000000000000,-6.12323399573676E-17));
#172=DIRECTION('',(-1.00000000000000,0.00000000000000,0.00000000000000));
#173=AXIS2_PLACEMENT_3D('',#170,#171,#172);
#174=PLANE('',#173);
#175=ADVANCED_FACE('',(#169),#174,.F.);
#176=CLOSED_SHELL('',(#65,#96,#129,#151,#163,#175));
#177=MANIFOLD_SOLID_BREP('',#176);
#178=COLOUR_RGB('',1.00000000000000,0.00000000000000,0.00000000000000);
#179=FILL_AREA_STYLE_COLOUR('',#178);
#180=FILL_AREA_STYLE('',(#179));
#181=SURFACE_STYLE_FILL_AREA(#180);
#182=SURFACE_SIDE_STYLE('',(#181));
#183=SURFACE_STYLE_USAGE(.BOTH.,#182);
#184=PRESENTATION_STYLE_ASSIGNMENT((#183));
#185=STYLED_ITEM('',(#184),#177);
#186=ADVANCED_BREP_SHAPE_REPRESENTATION('',(#177,#23),#18);
#187=PRODUCT('', '', ' ',(#2));
#188=PRODUCT_DEFINITION_FORMATION_WITH_SPECIFIED_SOURCE (' ', ' ', #187, .NOT_KNOWN.) ;
#189=PRODUCT_CATEGORY('part','') ;
#190=PRODUCT_RELATED_PRODUCT_CATEGORY('detail', ' ', (#187)) ;
#191=PRODUCT_CATEGORY_RELATIONSHIP(' ', ' ', #189, #190);
#192=PRODUCT_DEFINITION('', '', #188, #1);
#193=PRODUCT_DEFINITION_SHAPE('NONE', 'NONE', #192);
#194=SHAPE_DEFINITION_REPRESENTATION(#193, #186);
#195=PRESENTATION_LAYER_ASSIGNMENT('1','Unnamed [1]',(#177));
#196=MECHANICAL_DESIGN_GEOMETRIC_PRESENTATION_REPRESENTATION('',(#185), #18);
ENDSEC;
END-ISO-10303-21;
