ISO-10303-21;
HEADER;
FILE_DESCRIPTION((''),'2;1');
FILE_NAME('C:/Program Files/Kubotek/KeyCreatorPro.2021.SP0/STEP/SG1538.STP', '2021-02-25T21:25:50',(''), (''), 'KCM Version 2.0.6974.6974', 'KeyCreator Pro', '');
FILE_SCHEMA(('AUTOMOTIVE_DESIGN'));
ENDSEC;
DATA;
#1=PRODUCT_DEFINITION_CONTEXT('',#4,'design');
#2=PRODUCT_CONTEXT('',#4,'mechanical');
#3=APPLICATION_PROTOCOL_DEFINITION('International Standard','automotive_design',2001,#4);
#4=APPLICATION_CONTEXT('automotive design');
#10=DIMENSIONAL_EXPONENTS(1.0,0.0,0.0,0.0,0.0,0.0,0.0);
#11=DIMENSIONAL_EXPONENTS(0.0,0.0,0.0,0.0,0.0,0.0,0.0);
#12=(NAMED_UNIT(#10)LENGTH_UNIT()SI_UNIT(.MILLI.,.METRE.));
#13=(NAMED_UNIT(#11)PLANE_ANGLE_UNIT()SI_UNIT($,.RADIAN.));
#14=(NAMED_UNIT(#11)SOLID_ANGLE_UNIT()SI_UNIT($,.STERADIAN.));
#15=LENGTH_MEASURE_WITH_UNIT(LENGTH_MEASURE(25.4),#12);
#16= (CONVERSION_BASED_UNIT('INCH',#15)LENGTH_UNIT()NAMED_UNIT(#10));
#17=UNCERTAINTY_MEASURE_WITH_UNIT(LENGTH_MEASURE(1.0E-006),#16,'','');
#18=(GEOMETRIC_REPRESENTATION_CONTEXT(3)GLOBAL_UNCERTAINTY_ASSIGNED_CONTEXT((#17))GLOBAL_UNIT_ASSIGNED_CONTEXT((#16,#13,#14))REPRESENTATION_CONTEXT('NONE','WORKSPACE'));
#20=CARTESIAN_POINT('',(0.00000000000000,0.00000000000000,0.00000000000000));
#21=DIRECTION('',(0.00000000000000,0.00000000000000,1.00000000000000));
#22=DIRECTION('',(1.00000000000000,0.00000000000000,0.00000000000000));
#23=AXIS2_PLACEMENT_3D('',#20,#21,#22);
#24=CARTESIAN_POINT('',(9.75077249629291,11.1911610159368,-0.432499999999999));
#25=VERTEX_POINT('',#24);
#26=CARTESIAN_POINT('',(9.75077249629291,11.1911610159368,0.432499999999999));
#27=VERTEX_POINT('',#26);
#28=CARTESIAN_POINT('',(9.75077249629291,11.1911610159368,-0.432499999999999));
#29=DIRECTION('',(0.00000000000000,0.00000000000000,1.00000000000000));
#30=VECTOR('',#29,1.00000000000000);
#31=LINE('',#28,#30);
#32=EDGE_CURVE('',#25,#27,#31,.T.);
#33=ORIENTED_EDGE('',*,*,#32,.T.);
#34=CARTESIAN_POINT('',(9.75077249629291,5.19116101593684,0.432499999999999));
#35=VERTEX_POINT('',#34);
#36=CARTESIAN_POINT('',(9.75077249629291,8.19116101593684,0.432499999999999));
#37=DIRECTION('',(0.00000000000000,1.00000000000000,0.00000000000000));
#38=VECTOR('',#37,1.00000000000000);
#39=LINE('',#36,#38);
#40=EDGE_CURVE('',#35,#27,#39,.T.);
#41=ORIENTED_EDGE('',*,*,#40,.F.);
#42=CARTESIAN_POINT('',(9.75077249629291,5.19116101593684,-0.432499999999999));
#43=VERTEX_POINT('',#42);
#44=CARTESIAN_POINT('',(9.75077249629291,5.19116101593684,-0.432499999999999));
#45=DIRECTION('',(-0.00000000000000,-0.00000000000000,-1.00000000000000));
#46=VECTOR('',#45,1.00000000000000);
#47=LINE('',#44,#46);
#48=EDGE_CURVE('',#35,#43,#47,.T.);
#49=ORIENTED_EDGE('',*,*,#48,.T.);
#50=CARTESIAN_POINT('',(9.75077249629291,8.19116101593684,-0.432499999999999));
#51=DIRECTION('',(0.00000000000000,1.00000000000000,0.00000000000000));
#52=VECTOR('',#51,1.00000000000000);
#53=LINE('',#50,#52);
#54=EDGE_CURVE('',#43,#25,#53,.T.);
#55=ORIENTED_EDGE('',*,*,#54,.T.);
#56=EDGE_LOOP('',(#33,#41,#49,#55));
#57=FACE_OUTER_BOUND('',#56,.T.);
#58=CARTESIAN_POINT('',(9.75077249629291,8.19116101593684,0.00000000000000));
#59=DIRECTION('',(1.00000000000000,0.00000000000000,0.00000000000000));
#60=DIRECTION('',(-0.00000000000000,-0.00000000000000,-1.00000000000000));
#61=AXIS2_PLACEMENT_3D('',#58,#59,#60);
#62=PLANE('',#61);
#63=ADVANCED_FACE('',(#57),#62,.T.);
#64=CARTESIAN_POINT('',(9.66077249629291,11.1911610159368,0.432499999999999));
#65=VERTEX_POINT('',#64);
#66=CARTESIAN_POINT('',(9.70577249629291,11.1911610159368,0.432499999999999));
#67=DIRECTION('',(0.00000000000000,-1.00000000000000,6.12323399573676E-17));
#68=DIRECTION('',(1.00000000000000,0.00000000000000,0.00000000000000));
#69=AXIS2_PLACEMENT_3D('',#66,#67,#68);
#70=CIRCLE('',#69,0.0450000000000000);
#71=EDGE_CURVE('',#27,#65,#70,.T.);
#72=ORIENTED_EDGE('',*,*,#71,.T.);
#73=CARTESIAN_POINT('',(9.66077249629291,5.19116101593684,0.432499999999999));
#74=VERTEX_POINT('',#73);
#75=CARTESIAN_POINT('',(9.66077249629291,8.19116101593684,0.432499999999999));
#76=DIRECTION('',(0.00000000000000,-1.00000000000000,0.00000000000000));
#77=VECTOR('',#76,1.00000000000000);
#78=LINE('',#75,#77);
#79=EDGE_CURVE('',#65,#74,#78,.T.);
#80=ORIENTED_EDGE('',*,*,#79,.T.);
#81=CARTESIAN_POINT('',(9.70577249629291,5.19116101593684,0.432499999999999));
#82=DIRECTION('',(0.00000000000000,1.00000000000000,-6.12323399573676E-17));
#83=DIRECTION('',(1.00000000000000,0.00000000000000,0.00000000000000));
#84=AXIS2_PLACEMENT_3D('',#81,#82,#83);
#85=CIRCLE('',#84,0.0450000000000000);
#86=EDGE_CURVE('',#74,#35,#85,.T.);
#87=ORIENTED_EDGE('',*,*,#86,.T.);
#88=ORIENTED_EDGE('',*,*,#40,.T.);
#89=EDGE_LOOP('',(#72,#80,#87,#88));
#90=FACE_OUTER_BOUND('',#89,.T.);
#91=CARTESIAN_POINT('',(9.70577249629291,8.19116101593684,0.432499999999999));
#92=DIRECTION('',(0.00000000000000,1.00000000000000,0.00000000000000));
#93=DIRECTION('',(0.00000000000000,0.00000000000000,-1.00000000000000));
#94=AXIS2_PLACEMENT_3D('',#91,#92,#93);
#95=CYLINDRICAL_SURFACE('',#94,0.0450000000000000);
#96=ADVANCED_FACE('',(#90),#95,.T.);
#97=CARTESIAN_POINT('',(9.66077249629291,11.1911610159368,-0.432499999999999));
#98=VERTEX_POINT('',#97);
#99=CARTESIAN_POINT('',(9.66077249629291,11.1911610159368,-0.432499999999999));
#100=DIRECTION('',(-0.00000000000000,-0.00000000000000,-1.00000000000000));
#101=VECTOR('',#100,1.00000000000000);
#102=LINE('',#99,#101);
#103=EDGE_CURVE('',#65,#98,#102,.T.);
#104=ORIENTED_EDGE('',*,*,#103,.T.);
#105=CARTESIAN_POINT('',(9.66077249629291,5.19116101593684,-0.432499999999999));
#106=VERTEX_POINT('',#105);
#107=CARTESIAN_POINT('',(9.66077249629291,8.19116101593684,-0.432499999999999));
#108=DIRECTION('',(0.00000000000000,1.00000000000000,0.00000000000000));
#109=VECTOR('',#108,1.00000000000000);
#110=LINE('',#107,#109);
#111=EDGE_CURVE('',#106,#98,#110,.T.);
#112=ORIENTED_EDGE('',*,*,#111,.F.);
#113=CARTESIAN_POINT('',(9.66077249629291,5.19116101593684,-0.432499999999999));
#114=DIRECTION('',(0.00000000000000,0.00000000000000,1.00000000000000));
#115=VECTOR('',#114,1.00000000000000);
#116=LINE('',#113,#115);
#117=EDGE_CURVE('',#106,#74,#116,.T.);
#118=ORIENTED_EDGE('',*,*,#117,.T.);
#119=ORIENTED_EDGE('',*,*,#79,.F.);
#120=EDGE_LOOP('',(#104,#112,#118,#119));
#121=FACE_OUTER_BOUND('',#120,.T.);
#122=CARTESIAN_POINT('',(9.66077249629291,8.19116101593684,0.00000000000000));
#123=DIRECTION('',(-1.00000000000000,0.00000000000000,0.00000000000000));
#124=DIRECTION('',(0.00000000000000,0.00000000000000,1.00000000000000));
#125=AXIS2_PLACEMENT_3D('',#122,#123,#124);
#126=PLANE('',#125);
#127=ADVANCED_FACE('',(#121),#126,.T.);
#128=CARTESIAN_POINT('',(9.41077249629291,11.1911610159368,-0.432499999999999));
#129=VERTEX_POINT('',#128);
#130=CARTESIAN_POINT('',(9.41077249629291,11.1911610159368,-0.432499999999999));
#131=DIRECTION('',(-1.00000000000000,-0.00000000000000,-0.00000000000000));
#132=VECTOR('',#131,1.00000000000000);
#133=LINE('',#130,#132);
#134=EDGE_CURVE('',#98,#129,#133,.T.);
#135=ORIENTED_EDGE('',*,*,#134,.T.);
#136=CARTESIAN_POINT('',(9.41077249629291,5.19116101593684,-0.432499999999999));
#137=VERTEX_POINT('',#136);
#138=CARTESIAN_POINT('',(9.41077249629291,8.19116101593684,-0.432499999999999));
#139=DIRECTION('',(0.00000000000000,1.00000000000000,0.00000000000000));
#140=VECTOR('',#139,1.00000000000000);
#141=LINE('',#138,#140);
#142=EDGE_CURVE('',#137,#129,#141,.T.);
#143=ORIENTED_EDGE('',*,*,#142,.F.);
#144=CARTESIAN_POINT('',(9.41077249629291,5.19116101593684,-0.432499999999999));
#145=DIRECTION('',(1.00000000000000,0.00000000000000,0.00000000000000));
#146=VECTOR('',#145,1.00000000000000);
#147=LINE('',#144,#146);
#148=EDGE_CURVE('',#137,#106,#147,.T.);
#149=ORIENTED_EDGE('',*,*,#148,.T.);
#150=ORIENTED_EDGE('',*,*,#111,.T.);
#151=EDGE_LOOP('',(#135,#143,#149,#150));
#152=FACE_OUTER_BOUND('',#151,.T.);
#153=CARTESIAN_POINT('',(9.53577249629291,8.19116101593684,-0.432499999999999));
#154=DIRECTION('',(0.00000000000000,0.00000000000000,1.00000000000000));
#155=DIRECTION('',(1.00000000000000,0.00000000000000,0.00000000000000));
#156=AXIS2_PLACEMENT_3D('',#153,#154,#155);
#157=PLANE('',#156);
#158=ADVANCED_FACE('',(#152),#157,.T.);
#159=CARTESIAN_POINT('',(9.41077249629291,11.1911610159368,0.432499999999999));
#160=VERTEX_POINT('',#159);
#161=CARTESIAN_POINT('',(9.41077249629291,11.1911610159368,-0.432499999999999));
#162=DIRECTION('',(0.00000000000000,0.00000000000000,1.00000000000000));
#163=VECTOR('',#162,1.00000000000000);
#164=LINE('',#161,#163);
#165=EDGE_CURVE('',#129,#160,#164,.T.);
#166=ORIENTED_EDGE('',*,*,#165,.T.);
#167=CARTESIAN_POINT('',(9.41077249629291,5.19116101593684,0.432499999999999));
#168=VERTEX_POINT('',#167);
#169=CARTESIAN_POINT('',(9.41077249629291,8.19116101593684,0.432499999999999));
#170=DIRECTION('',(0.00000000000000,1.00000000000000,0.00000000000000));
#171=VECTOR('',#170,1.00000000000000);
#172=LINE('',#169,#171);
#173=EDGE_CURVE('',#168,#160,#172,.T.);
#174=ORIENTED_EDGE('',*,*,#173,.F.);
#175=CARTESIAN_POINT('',(9.41077249629291,5.19116101593684,-0.432499999999999));
#176=DIRECTION('',(-0.00000000000000,-0.00000000000000,-1.00000000000000));
#177=VECTOR('',#176,1.00000000000000);
#178=LINE('',#175,#177);
#179=EDGE_CURVE('',#168,#137,#178,.T.);
#180=ORIENTED_EDGE('',*,*,#179,.T.);
#181=ORIENTED_EDGE('',*,*,#142,.T.);
#182=EDGE_LOOP('',(#166,#174,#180,#181));
#183=FACE_OUTER_BOUND('',#182,.T.);
#184=CARTESIAN_POINT('',(9.41077249629291,8.19116101593684,0.00000000000000));
#185=DIRECTION('',(1.00000000000000,0.00000000000000,0.00000000000000));
#186=DIRECTION('',(-0.00000000000000,-0.00000000000000,-1.00000000000000));
#187=AXIS2_PLACEMENT_3D('',#184,#185,#186);
#188=PLANE('',#187);
#189=ADVANCED_FACE('',(#183),#188,.T.);
#190=CARTESIAN_POINT('',(9.32077249629291,11.1911610159368,0.432499999999999));
#191=VERTEX_POINT('',#190);
#192=CARTESIAN_POINT('',(9.36577249629291,11.1911610159368,0.432499999999999));
#193=DIRECTION('',(0.00000000000000,-1.00000000000000,6.12323399573676E-17));
#194=DIRECTION('',(1.00000000000000,0.00000000000000,0.00000000000000));
#195=AXIS2_PLACEMENT_3D('',#192,#193,#194);
#196=CIRCLE('',#195,0.0450000000000000);
#197=EDGE_CURVE('',#160,#191,#196,.T.);
#198=ORIENTED_EDGE('',*,*,#197,.T.);
#199=CARTESIAN_POINT('',(9.32077249629291,5.19116101593684,0.432499999999999));
#200=VERTEX_POINT('',#199);
#201=CARTESIAN_POINT('',(9.32077249629291,8.19116101593684,0.432499999999999));
#202=DIRECTION('',(0.00000000000000,-1.00000000000000,0.00000000000000));
#203=VECTOR('',#202,1.00000000000000);
#204=LINE('',#201,#203);
#205=EDGE_CURVE('',#191,#200,#204,.T.);
#206=ORIENTED_EDGE('',*,*,#205,.T.);
#207=CARTESIAN_POINT('',(9.36577249629291,5.19116101593684,0.432499999999999));
#208=DIRECTION('',(0.00000000000000,1.00000000000000,-6.12323399573676E-17));
#209=DIRECTION('',(1.00000000000000,0.00000000000000,0.00000000000000));
#210=AXIS2_PLACEMENT_3D('',#207,#208,#209);
#211=CIRCLE('',#210,0.0450000000000000);
#212=EDGE_CURVE('',#200,#168,#211,.T.);
#213=ORIENTED_EDGE('',*,*,#212,.T.);
#214=ORIENTED_EDGE('',*,*,#173,.T.);
#215=EDGE_LOOP('',(#198,#206,#213,#214));
#216=FACE_OUTER_BOUND('',#215,.T.);
#217=CARTESIAN_POINT('',(9.36577249629291,8.19116101593684,0.432499999999999));
#218=DIRECTION('',(0.00000000000000,1.00000000000000,0.00000000000000));
#219=DIRECTION('',(0.00000000000000,0.00000000000000,-1.00000000000000));
#220=AXIS2_PLACEMENT_3D('',#217,#218,#219);
#221=CYLINDRICAL_SURFACE('',#220,0.0450000000000000);
#222=ADVANCED_FACE('',(#216),#221,.T.);
#223=CARTESIAN_POINT('',(9.32077249629291,11.1911610159368,-0.432499999999999));
#224=VERTEX_POINT('',#223);
#225=CARTESIAN_POINT('',(9.32077249629291,11.1911610159368,-0.432499999999999));
#226=DIRECTION('',(-0.00000000000000,-0.00000000000000,-1.00000000000000));
#227=VECTOR('',#226,1.00000000000000);
#228=LINE('',#225,#227);
#229=EDGE_CURVE('',#191,#224,#228,.T.);
#230=ORIENTED_EDGE('',*,*,#229,.T.);
#231=CARTESIAN_POINT('',(9.32077249629291,5.19116101593684,-0.432499999999999));
#232=VERTEX_POINT('',#231);
#233=CARTESIAN_POINT('',(9.32077249629291,8.19116101593684,-0.432499999999999));
#234=DIRECTION('',(0.00000000000000,1.00000000000000,0.00000000000000));
#235=VECTOR('',#234,1.00000000000000);
#236=LINE('',#233,#235);
#237=EDGE_CURVE('',#232,#224,#236,.T.);
#238=ORIENTED_EDGE('',*,*,#237,.F.);
#239=CARTESIAN_POINT('',(9.32077249629291,5.19116101593684,-0.432499999999999));
#240=DIRECTION('',(0.00000000000000,0.00000000000000,1.00000000000000));
#241=VECTOR('',#240,1.00000000000000);
#242=LINE('',#239,#241);
#243=EDGE_CURVE('',#232,#200,#242,.T.);
#244=ORIENTED_EDGE('',*,*,#243,.T.);
#245=ORIENTED_EDGE('',*,*,#205,.F.);
#246=EDGE_LOOP('',(#230,#238,#244,#245));
#247=FACE_OUTER_BOUND('',#246,.T.);
#248=CARTESIAN_POINT('',(9.32077249629291,8.19116101593684,0.00000000000000));
#249=DIRECTION('',(-1.00000000000000,0.00000000000000,0.00000000000000));
#250=DIRECTION('',(0.00000000000000,0.00000000000000,1.00000000000000));
#251=AXIS2_PLACEMENT_3D('',#248,#249,#250);
#252=PLANE('',#251);
#253=ADVANCED_FACE('',(#247),#252,.T.);
#254=CARTESIAN_POINT('',(8.83077249629291,11.1911610159368,-0.432499999999999));
#255=VERTEX_POINT('',#254);
#256=CARTESIAN_POINT('',(8.83077249629291,11.1911610159368,-0.432499999999999));
#257=DIRECTION('',(-1.00000000000000,-0.00000000000000,-0.00000000000000));
#258=VECTOR('',#257,1.00000000000000);
#259=LINE('',#256,#258);
#260=EDGE_CURVE('',#224,#255,#259,.T.);
#261=ORIENTED_EDGE('',*,*,#260,.T.);
#262=CARTESIAN_POINT('',(8.83077249629291,5.19116101593684,-0.432499999999999));
#263=VERTEX_POINT('',#262);
#264=CARTESIAN_POINT('',(8.83077249629291,8.19116101593684,-0.432499999999999));
#265=DIRECTION('',(0.00000000000000,1.00000000000000,0.00000000000000));
#266=VECTOR('',#265,1.00000000000000);
#267=LINE('',#264,#266);
#268=EDGE_CURVE('',#263,#255,#267,.T.);
#269=ORIENTED_EDGE('',*,*,#268,.F.);
#270=CARTESIAN_POINT('',(8.83077249629291,5.19116101593684,-0.432499999999999));
#271=DIRECTION('',(1.00000000000000,0.00000000000000,0.00000000000000));
#272=VECTOR('',#271,1.00000000000000);
#273=LINE('',#270,#272);
#274=EDGE_CURVE('',#263,#232,#273,.T.);
#275=ORIENTED_EDGE('',*,*,#274,.T.);
#276=ORIENTED_EDGE('',*,*,#237,.T.);
#277=EDGE_LOOP('',(#261,#269,#275,#276));
#278=FACE_OUTER_BOUND('',#277,.T.);
#279=CARTESIAN_POINT('',(9.07577249629291,8.19116101593684,-0.432499999999999));
#280=DIRECTION('',(0.00000000000000,0.00000000000000,1.00000000000000));
#281=DIRECTION('',(1.00000000000000,0.00000000000000,0.00000000000000));
#282=AXIS2_PLACEMENT_3D('',#279,#280,#281);
#283=PLANE('',#282);
#284=ADVANCED_FACE('',(#278),#283,.T.);
#285=CARTESIAN_POINT('',(8.83077249629291,11.1911610159368,-0.522500000000000));
#286=VERTEX_POINT('',#285);
#287=CARTESIAN_POINT('',(8.83077249629291,11.1911610159368,-0.477500000000000));
#288=DIRECTION('',(0.00000000000000,-1.00000000000000,6.12323399573676E-17));
#289=DIRECTION('',(1.00000000000000,0.00000000000000,0.00000000000000));
#290=AXIS2_PLACEMENT_3D('',#287,#288,#289);
#291=CIRCLE('',#290,0.0450000000000000);
#292=EDGE_CURVE('',#255,#286,#291,.T.);
#293=ORIENTED_EDGE('',*,*,#292,.T.);
#294=CARTESIAN_POINT('',(8.83077249629291,5.19116101593684,-0.522500000000000));
#295=VERTEX_POINT('',#294);
#296=CARTESIAN_POINT('',(8.83077249629291,8.19116101593684,-0.522500000000000));
#297=DIRECTION('',(0.00000000000000,-1.00000000000000,0.00000000000000));
#298=VECTOR('',#297,1.00000000000000);
#299=LINE('',#296,#298);
#300=EDGE_CURVE('',#286,#295,#299,.T.);
#301=ORIENTED_EDGE('',*,*,#300,.T.);
#302=CARTESIAN_POINT('',(8.83077249629291,5.19116101593684,-0.477500000000000));
#303=DIRECTION('',(0.00000000000000,1.00000000000000,-6.12323399573676E-17));
#304=DIRECTION('',(1.00000000000000,0.00000000000000,0.00000000000000));
#305=AXIS2_PLACEMENT_3D('',#302,#303,#304);
#306=CIRCLE('',#305,0.0450000000000000);
#307=EDGE_CURVE('',#295,#263,#306,.T.);
#308=ORIENTED_EDGE('',*,*,#307,.T.);
#309=ORIENTED_EDGE('',*,*,#268,.T.);
#310=EDGE_LOOP('',(#293,#301,#308,#309));
#311=FACE_OUTER_BOUND('',#310,.T.);
#312=CARTESIAN_POINT('',(8.83077249629291,8.19116101593684,-0.477500000000000));
#313=DIRECTION('',(0.00000000000000,1.00000000000000,0.00000000000000));
#314=DIRECTION('',(1.00000000000000,-0.00000000000000,0.00000000000000));
#315=AXIS2_PLACEMENT_3D('',#312,#313,#314);
#316=CYLINDRICAL_SURFACE('',#315,0.0450000000000000);
#317=ADVANCED_FACE('',(#311),#316,.T.);
#318=CARTESIAN_POINT('',(10.2407724962929,11.1911610159368,-0.522500000000000));
#319=VERTEX_POINT('',#318);
#320=CARTESIAN_POINT('',(8.83077249629291,11.1911610159368,-0.522500000000000));
#321=DIRECTION('',(1.00000000000000,0.00000000000000,0.00000000000000));
#322=VECTOR('',#321,1.00000000000000);
#323=LINE('',#320,#322);
#324=EDGE_CURVE('',#286,#319,#323,.T.);
#325=ORIENTED_EDGE('',*,*,#324,.T.);
#326=CARTESIAN_POINT('',(10.2407724962929,5.19116101593684,-0.522500000000000));
#327=VERTEX_POINT('',#326);
#328=CARTESIAN_POINT('',(10.2407724962929,8.19116101593684,-0.522500000000000));
#329=DIRECTION('',(0.00000000000000,1.00000000000000,0.00000000000000));
#330=VECTOR('',#329,1.00000000000000);
#331=LINE('',#328,#330);
#332=EDGE_CURVE('',#327,#319,#331,.T.);
#333=ORIENTED_EDGE('',*,*,#332,.F.);
#334=CARTESIAN_POINT('',(8.83077249629291,5.19116101593684,-0.522500000000000));
#335=DIRECTION('',(-1.00000000000000,-0.00000000000000,-0.00000000000000));
#336=VECTOR('',#335,1.00000000000000);
#337=LINE('',#334,#336);
#338=EDGE_CURVE('',#327,#295,#337,.T.);
#339=ORIENTED_EDGE('',*,*,#338,.T.);
#340=ORIENTED_EDGE('',*,*,#300,.F.);
#341=EDGE_LOOP('',(#325,#333,#339,#340));
#342=FACE_OUTER_BOUND('',#341,.T.);
#343=CARTESIAN_POINT('',(9.53577249629291,8.19116101593684,-0.522500000000000));
#344=DIRECTION('',(0.00000000000000,0.00000000000000,-1.00000000000000));
#345=DIRECTION('',(-1.00000000000000,-0.00000000000000,-0.00000000000000));
#346=AXIS2_PLACEMENT_3D('',#343,#344,#345);
#347=PLANE('',#346);
#348=ADVANCED_FACE('',(#342),#347,.T.);
#349=CARTESIAN_POINT('',(10.2407724962929,11.1911610159368,-0.432499999999999));
#350=VERTEX_POINT('',#349);
#351=CARTESIAN_POINT('',(10.2407724962929,11.1911610159368,-0.477500000000000));
#352=DIRECTION('',(0.00000000000000,-1.00000000000000,6.12323399573676E-17));
#353=DIRECTION('',(1.00000000000000,0.00000000000000,0.00000000000000));
#354=AXIS2_PLACEMENT_3D('',#351,#352,#353);
#355=CIRCLE('',#354,0.0450000000000000);
#356=EDGE_CURVE('',#319,#350,#355,.T.);
#357=ORIENTED_EDGE('',*,*,#356,.T.);
#358=CARTESIAN_POINT('',(10.2407724962929,5.19116101593684,-0.432499999999999));
#359=VERTEX_POINT('',#358);
#360=CARTESIAN_POINT('',(10.2407724962929,8.19116101593684,-0.432499999999999));
#361=DIRECTION('',(0.00000000000000,-1.00000000000000,0.00000000000000));
#362=VECTOR('',#361,1.00000000000000);
#363=LINE('',#360,#362);
#364=EDGE_CURVE('',#350,#359,#363,.T.);
#365=ORIENTED_EDGE('',*,*,#364,.T.);
#366=CARTESIAN_POINT('',(10.2407724962929,5.19116101593684,-0.477500000000000));
#367=DIRECTION('',(0.00000000000000,1.00000000000000,-6.12323399573676E-17));
#368=DIRECTION('',(1.00000000000000,0.00000000000000,0.00000000000000));
#369=AXIS2_PLACEMENT_3D('',#366,#367,#368);
#370=CIRCLE('',#369,0.0450000000000000);
#371=EDGE_CURVE('',#359,#327,#370,.T.);
#372=ORIENTED_EDGE('',*,*,#371,.T.);
#373=ORIENTED_EDGE('',*,*,#332,.T.);
#374=EDGE_LOOP('',(#357,#365,#372,#373));
#375=FACE_OUTER_BOUND('',#374,.T.);
#376=CARTESIAN_POINT('',(10.2407724962929,8.19116101593684,-0.477500000000000));
#377=DIRECTION('',(0.00000000000000,1.00000000000000,0.00000000000000));
#378=DIRECTION('',(-1.00000000000000,0.00000000000000,0.00000000000000));
#379=AXIS2_PLACEMENT_3D('',#376,#377,#378);
#380=CYLINDRICAL_SURFACE('',#379,0.0450000000000000);
#381=ADVANCED_FACE('',(#375),#380,.T.);
#382=CARTESIAN_POINT('',(9.75077249629291,11.1911610159368,-0.432499999999999));
#383=DIRECTION('',(-1.00000000000000,-0.00000000000000,-0.00000000000000));
#384=VECTOR('',#383,1.00000000000000);
#385=LINE('',#382,#384);
#386=EDGE_CURVE('',#350,#25,#385,.T.);
#387=ORIENTED_EDGE('',*,*,#386,.T.);
#388=ORIENTED_EDGE('',*,*,#54,.F.);
#389=CARTESIAN_POINT('',(9.75077249629291,5.19116101593684,-0.432499999999999));
#390=DIRECTION('',(1.00000000000000,0.00000000000000,0.00000000000000));
#391=VECTOR('',#390,1.00000000000000);
#392=LINE('',#389,#391);
#393=EDGE_CURVE('',#43,#359,#392,.T.);
#394=ORIENTED_EDGE('',*,*,#393,.T.);
#395=ORIENTED_EDGE('',*,*,#364,.F.);
#396=EDGE_LOOP('',(#387,#388,#394,#395));
#397=FACE_OUTER_BOUND('',#396,.T.);
#398=CARTESIAN_POINT('',(9.99577249629291,8.19116101593684,-0.432499999999999));
#399=DIRECTION('',(0.00000000000000,0.00000000000000,1.00000000000000));
#400=DIRECTION('',(1.00000000000000,0.00000000000000,0.00000000000000));
#401=AXIS2_PLACEMENT_3D('',#398,#399,#400);
#402=PLANE('',#401);
#403=ADVANCED_FACE('',(#397),#402,.T.);
#404=ORIENTED_EDGE('',*,*,#32,.F.);
#405=ORIENTED_EDGE('',*,*,#386,.F.);
#406=ORIENTED_EDGE('',*,*,#356,.F.);
#407=ORIENTED_EDGE('',*,*,#324,.F.);
#408=ORIENTED_EDGE('',*,*,#292,.F.);
#409=ORIENTED_EDGE('',*,*,#260,.F.);
#410=ORIENTED_EDGE('',*,*,#229,.F.);
#411=ORIENTED_EDGE('',*,*,#197,.F.);
#412=ORIENTED_EDGE('',*,*,#165,.F.);
#413=ORIENTED_EDGE('',*,*,#134,.F.);
#414=ORIENTED_EDGE('',*,*,#103,.F.);
#415=ORIENTED_EDGE('',*,*,#71,.F.);
#416=EDGE_LOOP('',(#404,#405,#406,#407,#408,#409,#410,#411,#412,#413,#414,#415));
#417=FACE_OUTER_BOUND('',#416,.T.);
#418=CARTESIAN_POINT('',(9.90381174629291,11.1911610159368,-0.432499999999999));
#419=DIRECTION('',(0.00000000000000,1.00000000000000,0.00000000000000));
#420=DIRECTION('',(-1.00000000000000,0.00000000000000,0.00000000000000));
#421=AXIS2_PLACEMENT_3D('',#418,#419,#420);
#422=PLANE('',#421);
#423=ADVANCED_FACE('',(#417),#422,.T.);
#424=ORIENTED_EDGE('',*,*,#371,.F.);
#425=ORIENTED_EDGE('',*,*,#393,.F.);
#426=ORIENTED_EDGE('',*,*,#48,.F.);
#427=ORIENTED_EDGE('',*,*,#86,.F.);
#428=ORIENTED_EDGE('',*,*,#117,.F.);
#429=ORIENTED_EDGE('',*,*,#148,.F.);
#430=ORIENTED_EDGE('',*,*,#179,.F.);
#431=ORIENTED_EDGE('',*,*,#212,.F.);
#432=ORIENTED_EDGE('',*,*,#243,.F.);
#433=ORIENTED_EDGE('',*,*,#274,.F.);
#434=ORIENTED_EDGE('',*,*,#307,.F.);
#435=ORIENTED_EDGE('',*,*,#338,.F.);
#436=EDGE_LOOP('',(#424,#425,#426,#427,#428,#429,#430,#431,#432,#433,#434,#435));
#437=FACE_OUTER_BOUND('',#436,.T.);
#438=CARTESIAN_POINT('',(9.90381174629291,5.19116101593684,-0.432499999999999));
#439=DIRECTION('',(0.00000000000000,1.00000000000000,0.00000000000000));
#440=DIRECTION('',(-1.00000000000000,0.00000000000000,0.00000000000000));
#441=AXIS2_PLACEMENT_3D('',#438,#439,#440);
#442=PLANE('',#441);
#443=ADVANCED_FACE('',(#437),#442,.F.);
#444=CLOSED_SHELL('',(#63,#96,#127,#158,#189,#222,#253,#284,#317,#348,#381,#403,#423,#443));
#445=MANIFOLD_SOLID_BREP('',#444);
#446=COLOUR_RGB('',1.00000000000000,0.00000000000000,0.00000000000000);
#447=FILL_AREA_STYLE_COLOUR('',#446);
#448=FILL_AREA_STYLE('',(#447));
#449=SURFACE_STYLE_FILL_AREA(#448);
#450=SURFACE_SIDE_STYLE('',(#449));
#451=SURFACE_STYLE_USAGE(.BOTH.,#450);
#452=PRESENTATION_STYLE_ASSIGNMENT((#451));
#453=STYLED_ITEM('',(#452),#445);
#454=ADVANCED_BREP_SHAPE_REPRESENTATION('',(#445,#23),#18);
#455=PRODUCT('', '', ' ',(#2));
#456=PRODUCT_DEFINITION_FORMATION_WITH_SPECIFIED_SOURCE (' ', ' ', #455, .NOT_KNOWN.) ;
#457=PRODUCT_CATEGORY('part','') ;
#458=PRODUCT_RELATED_PRODUCT_CATEGORY('detail', ' ', (#455)) ;
#459=PRODUCT_CATEGORY_RELATIONSHIP(' ', ' ', #457, #458);
#460=PRODUCT_DEFINITION('', '', #456, #1);
#461=PRODUCT_DEFINITION_SHAPE('NONE', 'NONE', #460);
#462=SHAPE_DEFINITION_REPRESENTATION(#461, #454);
#463=PRESENTATION_LAYER_ASSIGNMENT('1','Unnamed [1]',(#445));
#464=MECHANICAL_DESIGN_GEOMETRIC_PRESENTATION_REPRESENTATION('',(#453), #18);
ENDSEC;
END-ISO-10303-21;
