ISO-10303-21;
HEADER;
FILE_DESCRIPTION((''),'2;1');
FILE_NAME('C:/Program Files/Kubotek/KeyCreatorPro.2021.SP0/STEP/SG1528.STP', '2021-02-22T15:39:37',(''), (''), 'KCM Version 2.0.6974.6974', 'KeyCreator Pro', '');
FILE_SCHEMA(('AUTOMOTIVE_DESIGN'));
ENDSEC;
DATA;
#1=PRODUCT_DEFINITION_CONTEXT('',#4,'design');
#2=PRODUCT_CONTEXT('',#4,'mechanical');
#3=APPLICATION_PROTOCOL_DEFINITION('International Standard','automotive_design',2001,#4);
#4=APPLICATION_CONTEXT('automotive design');
#10=DIMENSIONAL_EXPONENTS(1.0,0.0,0.0,0.0,0.0,0.0,0.0);
#11=DIMENSIONAL_EXPONENTS(0.0,0.0,0.0,0.0,0.0,0.0,0.0);
#12=(NAMED_UNIT(#10)LENGTH_UNIT()SI_UNIT(.MILLI.,.METRE.));
#13=(NAMED_UNIT(#11)PLANE_ANGLE_UNIT()SI_UNIT($,.RADIAN.));
#14=(NAMED_UNIT(#11)SOLID_ANGLE_UNIT()SI_UNIT($,.STERADIAN.));
#15=LENGTH_MEASURE_WITH_UNIT(LENGTH_MEASURE(25.4),#12);
#16= (CONVERSION_BASED_UNIT('INCH',#15)LENGTH_UNIT()NAMED_UNIT(#10));
#17=UNCERTAINTY_MEASURE_WITH_UNIT(LENGTH_MEASURE(1.0E-006),#16,'','');
#18=(GEOMETRIC_REPRESENTATION_CONTEXT(3)GLOBAL_UNCERTAINTY_ASSIGNED_CONTEXT((#17))GLOBAL_UNIT_ASSIGNED_CONTEXT((#16,#13,#14))REPRESENTATION_CONTEXT('NONE','WORKSPACE'));
#20=CARTESIAN_POINT('',(0.00000000000000,0.00000000000000,0.00000000000000));
#21=DIRECTION('',(0.00000000000000,0.00000000000000,1.00000000000000));
#22=DIRECTION('',(1.00000000000000,0.00000000000000,0.00000000000000));
#23=AXIS2_PLACEMENT_3D('',#20,#21,#22);
#24=CARTESIAN_POINT('',(3.18396408573716,12.9349680499253,0.374866363588592));
#25=VERTEX_POINT('',#24);
#26=CARTESIAN_POINT('',(3.12396408573716,12.9349680499253,0.374866363588592));
#27=VERTEX_POINT('',#26);
#28=CARTESIAN_POINT('',(3.15396408573716,12.9349680499253,0.374866363588592));
#29=DIRECTION('',(0.00000000000000,-1.00000000000000,6.12323399573677E-17));
#30=DIRECTION('',(1.00000000000000,0.00000000000000,0.00000000000000));
#31=AXIS2_PLACEMENT_3D('',#28,#29,#30);
#32=CIRCLE('',#31,0.0300000000000000);
#33=EDGE_CURVE('',#25,#27,#32,.T.);
#34=ORIENTED_EDGE('',*,*,#33,.T.);
#35=CARTESIAN_POINT('',(3.12396408573716,6.93496804992525,0.374866363588603));
#36=VERTEX_POINT('',#35);
#37=CARTESIAN_POINT('',(3.12396408573716,6.93496804992525,0.374866363588603));
#38=DIRECTION('',(5.18104078158406E-16,1.00000000000000,-1.72084568816899E-15));
#39=VECTOR('',#38,1.00000000000000);
#40=LINE('',#37,#39);
#41=EDGE_CURVE('',#36,#27,#40,.T.);
#42=ORIENTED_EDGE('',*,*,#41,.F.);
#43=CARTESIAN_POINT('',(3.18396408573716,6.93496804992525,0.374866363588603));
#44=VERTEX_POINT('',#43);
#45=CARTESIAN_POINT('',(3.15396408573716,6.93496804992525,0.374866363588603));
#46=DIRECTION('',(0.00000000000000,-1.00000000000000,6.12323399573677E-17));
#47=DIRECTION('',(1.00000000000000,0.00000000000000,0.00000000000000));
#48=AXIS2_PLACEMENT_3D('',#45,#46,#47);
#49=CIRCLE('',#48,0.0300000000000000);
#50=EDGE_CURVE('',#44,#36,#49,.T.);
#51=ORIENTED_EDGE('',*,*,#50,.F.);
#52=CARTESIAN_POINT('',(3.18396408573716,6.93496804992525,0.374866363588603));
#53=DIRECTION('',(5.18104078158406E-16,1.00000000000000,-1.72084568816899E-15));
#54=VECTOR('',#53,1.00000000000000);
#55=LINE('',#52,#54);
#56=EDGE_CURVE('',#44,#25,#55,.T.);
#57=ORIENTED_EDGE('',*,*,#56,.T.);
#58=EDGE_LOOP('',(#34,#42,#51,#57));
#59=FACE_OUTER_BOUND('',#58,.T.);
#60=CARTESIAN_POINT('',(3.15396408573716,6.93496804992525,0.374866363588603));
#61=DIRECTION('',(5.18104078158406E-16,1.00000000000000,-1.72084568816899E-15));
#62=DIRECTION('',(0.00000000000000,0.00000000000000,-1.00000000000000));
#63=AXIS2_PLACEMENT_3D('',#60,#61,#62);
#64=CYLINDRICAL_SURFACE('',#63,0.0300000000000000);
#65=ADVANCED_FACE('',(#59),#64,.T.);
#66=CARTESIAN_POINT('',(3.12396408573716,12.9349680499253,-0.434783240718041));
#67=VERTEX_POINT('',#66);
#68=CARTESIAN_POINT('',(3.12396408573716,12.9349680499253,0.374866363588592));
#69=DIRECTION('',(0.00000000000000,-1.09699111192766E-15,-1.00000000000000));
#70=VECTOR('',#69,1.00000000000000);
#71=LINE('',#68,#70);
#72=EDGE_CURVE('',#27,#67,#71,.T.);
#73=ORIENTED_EDGE('',*,*,#72,.T.);
#74=CARTESIAN_POINT('',(3.12396408573716,6.93496804992525,-0.434783240718031));
#75=VERTEX_POINT('',#74);
#76=CARTESIAN_POINT('',(3.12396408573716,6.93496804992525,-0.434783240718031));
#77=DIRECTION('',(5.18104078158406E-16,1.00000000000000,-1.72084568816899E-15));
#78=VECTOR('',#77,1.00000000000000);
#79=LINE('',#76,#78);
#80=EDGE_CURVE('',#75,#67,#79,.T.);
#81=ORIENTED_EDGE('',*,*,#80,.F.);
#82=CARTESIAN_POINT('',(3.12396408573716,6.93496804992525,0.374866363588603));
#83=DIRECTION('',(0.00000000000000,-1.09699111192766E-15,-1.00000000000000));
#84=VECTOR('',#83,1.00000000000000);
#85=LINE('',#82,#84);
#86=EDGE_CURVE('',#36,#75,#85,.T.);
#87=ORIENTED_EDGE('',*,*,#86,.F.);
#88=ORIENTED_EDGE('',*,*,#41,.T.);
#89=EDGE_LOOP('',(#73,#81,#87,#88));
#90=FACE_OUTER_BOUND('',#89,.T.);
#91=CARTESIAN_POINT('',(3.12396408573716,6.93496804992525,-0.0299584385647140));
#92=DIRECTION('',(-1.00000000000000,5.18104078158406E-16,-5.68355568793246E-31));
#93=DIRECTION('',(-0.00000000000000,1.09699111192766E-15,1.00000000000000));
#94=AXIS2_PLACEMENT_3D('',#91,#92,#93);
#95=PLANE('',#94);
#96=ADVANCED_FACE('',(#90),#95,.T.);
#97=CARTESIAN_POINT('',(5.15396408573716,12.9349680499253,-0.434783240718041));
#98=VERTEX_POINT('',#97);
#99=CARTESIAN_POINT('',(5.15396408573716,12.9349680499253,-0.434783240718041));
#100=DIRECTION('',(1.00000000000000,0.00000000000000,0.00000000000000));
#101=VECTOR('',#100,1.00000000000000);
#102=LINE('',#99,#101);
#103=EDGE_CURVE('',#67,#98,#102,.T.);
#104=ORIENTED_EDGE('',*,*,#103,.T.);
#105=CARTESIAN_POINT('',(5.15396408573716,6.93496804992525,-0.434783240718031));
#106=VERTEX_POINT('',#105);
#107=CARTESIAN_POINT('',(5.15396408573716,6.93496804992525,-0.434783240718031));
#108=DIRECTION('',(5.18104078158406E-16,1.00000000000000,-1.72084568816899E-15));
#109=VECTOR('',#108,1.00000000000000);
#110=LINE('',#107,#109);
#111=EDGE_CURVE('',#106,#98,#110,.T.);
#112=ORIENTED_EDGE('',*,*,#111,.F.);
#113=CARTESIAN_POINT('',(5.15396408573716,6.93496804992525,-0.434783240718031));
#114=DIRECTION('',(-1.00000000000000,0.00000000000000,0.00000000000000));
#115=VECTOR('',#114,1.00000000000000);
#116=LINE('',#113,#115);
#117=EDGE_CURVE('',#106,#75,#116,.T.);
#118=ORIENTED_EDGE('',*,*,#117,.T.);
#119=ORIENTED_EDGE('',*,*,#80,.T.);
#120=EDGE_LOOP('',(#104,#112,#118,#119));
#121=FACE_OUTER_BOUND('',#120,.T.);
#122=CARTESIAN_POINT('',(4.13896408573716,6.93496804992525,-0.434783240718031));
#123=DIRECTION('',(-0.00000000000000,-1.72084568816899E-15,-1.00000000000000));
#124=DIRECTION('',(-1.00000000000000,0.00000000000000,0.00000000000000));
#125=AXIS2_PLACEMENT_3D('',#122,#123,#124);
#126=PLANE('',#125);
#127=ADVANCED_FACE('',(#121),#126,.T.);
#128=CARTESIAN_POINT('',(5.15173239068122,12.9349680499253,-0.374866363588613));
#129=VERTEX_POINT('',#128);
#130=CARTESIAN_POINT('',(5.15396408573716,12.9349680499253,-0.404783240718041));
#131=DIRECTION('',(0.00000000000000,-1.00000000000000,6.12323399573677E-17));
#132=DIRECTION('',(1.00000000000000,0.00000000000000,0.00000000000000));
#133=AXIS2_PLACEMENT_3D('',#130,#131,#132);
#134=CIRCLE('',#133,0.0300000000000001);
#135=EDGE_CURVE('',#98,#129,#134,.T.);
#136=ORIENTED_EDGE('',*,*,#135,.T.);
#137=CARTESIAN_POINT('',(5.15173239068122,6.93496804992525,-0.374866363588603));
#138=VERTEX_POINT('',#137);
#139=CARTESIAN_POINT('',(5.15173239068122,6.93496804992525,-0.374866363588603));
#140=DIRECTION('',(5.18104078158406E-16,1.00000000000000,-1.72084568816899E-15));
#141=VECTOR('',#140,1.00000000000000);
#142=LINE('',#139,#141);
#143=EDGE_CURVE('',#138,#129,#142,.T.);
#144=ORIENTED_EDGE('',*,*,#143,.F.);
#145=CARTESIAN_POINT('',(5.15396408573716,6.93496804992525,-0.404783240718031));
#146=DIRECTION('',(0.00000000000000,-1.00000000000000,6.12323399573677E-17));
#147=DIRECTION('',(1.00000000000000,0.00000000000000,0.00000000000000));
#148=AXIS2_PLACEMENT_3D('',#145,#146,#147);
#149=CIRCLE('',#148,0.0300000000000001);
#150=EDGE_CURVE('',#106,#138,#149,.T.);
#151=ORIENTED_EDGE('',*,*,#150,.F.);
#152=ORIENTED_EDGE('',*,*,#111,.T.);
#153=EDGE_LOOP('',(#136,#144,#151,#152));
#154=FACE_OUTER_BOUND('',#153,.T.);
#155=CARTESIAN_POINT('',(5.15396408573716,6.93496804992525,-0.404783240718031));
#156=DIRECTION('',(5.18104078158406E-16,1.00000000000000,-1.72084568816899E-15));
#157=DIRECTION('',(-0.999307069335444,0.00000000000000,-0.0372207089696759));
#158=AXIS2_PLACEMENT_3D('',#155,#156,#157);
#159=CYLINDRICAL_SURFACE('',#158,0.0300000000000001);
#160=ADVANCED_FACE('',(#154),#159,.T.);
#161=CARTESIAN_POINT('',(3.18396408573716,12.9349680499253,-0.374866363588613));
#162=VERTEX_POINT('',#161);
#163=CARTESIAN_POINT('',(5.15173239068122,12.9349680499253,-0.374866363588613));
#164=DIRECTION('',(-1.00000000000000,0.00000000000000,0.00000000000000));
#165=VECTOR('',#164,1.00000000000000);
#166=LINE('',#163,#165);
#167=EDGE_CURVE('',#129,#162,#166,.T.);
#168=ORIENTED_EDGE('',*,*,#167,.T.);
#169=CARTESIAN_POINT('',(3.18396408573716,6.93496804992525,-0.374866363588603));
#170=VERTEX_POINT('',#169);
#171=CARTESIAN_POINT('',(3.18396408573716,6.93496804992525,-0.374866363588603));
#172=DIRECTION('',(5.18104078158406E-16,1.00000000000000,-1.72084568816899E-15));
#173=VECTOR('',#172,1.00000000000000);
#174=LINE('',#171,#173);
#175=EDGE_CURVE('',#170,#162,#174,.T.);
#176=ORIENTED_EDGE('',*,*,#175,.F.);
#177=CARTESIAN_POINT('',(5.15173239068122,6.93496804992525,-0.374866363588603));
#178=DIRECTION('',(-1.00000000000000,0.00000000000000,0.00000000000000));
#179=VECTOR('',#178,1.00000000000000);
#180=LINE('',#177,#179);
#181=EDGE_CURVE('',#138,#170,#180,.T.);
#182=ORIENTED_EDGE('',*,*,#181,.F.);
#183=ORIENTED_EDGE('',*,*,#143,.T.);
#184=EDGE_LOOP('',(#168,#176,#182,#183));
#185=FACE_OUTER_BOUND('',#184,.T.);
#186=CARTESIAN_POINT('',(4.16784823820919,6.93496804992525,-0.374866363588603));
#187=DIRECTION('',(0.00000000000000,1.72084568816899E-15,1.00000000000000));
#188=DIRECTION('',(1.00000000000000,-0.00000000000000,-0.00000000000000));
#189=AXIS2_PLACEMENT_3D('',#186,#187,#188);
#190=PLANE('',#189);
#191=ADVANCED_FACE('',(#185),#190,.T.);
#192=CARTESIAN_POINT('',(3.18396408573716,12.9349680499253,0.374866363588592));
#193=DIRECTION('',(0.00000000000000,1.18466006285223E-15,1.00000000000000));
#194=VECTOR('',#193,1.00000000000000);
#195=LINE('',#192,#194);
#196=EDGE_CURVE('',#162,#25,#195,.T.);
#197=ORIENTED_EDGE('',*,*,#196,.T.);
#198=ORIENTED_EDGE('',*,*,#56,.F.);
#199=CARTESIAN_POINT('',(3.18396408573716,6.93496804992525,0.374866363588603));
#200=DIRECTION('',(0.00000000000000,-1.18466006285223E-15,-1.00000000000000));
#201=VECTOR('',#200,1.00000000000000);
#202=LINE('',#199,#201);
#203=EDGE_CURVE('',#44,#170,#202,.T.);
#204=ORIENTED_EDGE('',*,*,#203,.T.);
#205=ORIENTED_EDGE('',*,*,#175,.T.);
#206=EDGE_LOOP('',(#197,#198,#204,#205));
#207=FACE_OUTER_BOUND('',#206,.T.);
#208=CARTESIAN_POINT('',(3.18396408573716,6.93496804992525,0.00000000000000));
#209=DIRECTION('',(1.00000000000000,-5.18104078158406E-16,6.13777209795137E-31));
#210=DIRECTION('',(0.00000000000000,-1.18466006285223E-15,-1.00000000000000));
#211=AXIS2_PLACEMENT_3D('',#208,#209,#210);
#212=PLANE('',#211);
#213=ADVANCED_FACE('',(#207),#212,.T.);
#214=ORIENTED_EDGE('',*,*,#33,.F.);
#215=ORIENTED_EDGE('',*,*,#196,.F.);
#216=ORIENTED_EDGE('',*,*,#167,.F.);
#217=ORIENTED_EDGE('',*,*,#135,.F.);
#218=ORIENTED_EDGE('',*,*,#103,.F.);
#219=ORIENTED_EDGE('',*,*,#72,.F.);
#220=EDGE_LOOP('',(#214,#215,#216,#217,#218,#219));
#221=FACE_OUTER_BOUND('',#220,.T.);
#222=CARTESIAN_POINT('',(3.18396408573716,12.9349680499253,0.140706089572972));
#223=DIRECTION('',(-5.37297945314368E-16,-1.00000000000000,1.72270340328241E-15));
#224=DIRECTION('',(1.00000000000000,-5.37297945314368E-16,2.48193914802144E-61));
#225=AXIS2_PLACEMENT_3D('',#222,#223,#224);
#226=PLANE('',#225);
#227=ADVANCED_FACE('',(#221),#226,.F.);
#228=ORIENTED_EDGE('',*,*,#203,.F.);
#229=ORIENTED_EDGE('',*,*,#50,.T.);
#230=ORIENTED_EDGE('',*,*,#86,.T.);
#231=ORIENTED_EDGE('',*,*,#117,.F.);
#232=ORIENTED_EDGE('',*,*,#150,.T.);
#233=ORIENTED_EDGE('',*,*,#181,.T.);
#234=EDGE_LOOP('',(#228,#229,#230,#231,#232,#233));
#235=FACE_OUTER_BOUND('',#234,.T.);
#236=CARTESIAN_POINT('',(3.18396408573716,6.93496804992525,0.140706089572982));
#237=DIRECTION('',(-5.37297945314368E-16,-1.00000000000000,1.72270340328241E-15));
#238=DIRECTION('',(1.00000000000000,-5.37297945314368E-16,0.00000000000000));
#239=AXIS2_PLACEMENT_3D('',#236,#237,#238);
#240=PLANE('',#239);
#241=ADVANCED_FACE('',(#235),#240,.T.);
#242=CLOSED_SHELL('',(#65,#96,#127,#160,#191,#213,#227,#241));
#243=MANIFOLD_SOLID_BREP('',#242);
#244=COLOUR_RGB('',1.00000000000000,0.00000000000000,0.00000000000000);
#245=FILL_AREA_STYLE_COLOUR('',#244);
#246=FILL_AREA_STYLE('',(#245));
#247=SURFACE_STYLE_FILL_AREA(#246);
#248=SURFACE_SIDE_STYLE('',(#247));
#249=SURFACE_STYLE_USAGE(.BOTH.,#248);
#250=PRESENTATION_STYLE_ASSIGNMENT((#249));
#251=STYLED_ITEM('',(#250),#243);
#252=ADVANCED_BREP_SHAPE_REPRESENTATION('',(#243,#23),#18);
#253=PRODUCT('', '', ' ',(#2));
#254=PRODUCT_DEFINITION_FORMATION_WITH_SPECIFIED_SOURCE (' ', ' ', #253, .NOT_KNOWN.) ;
#255=PRODUCT_CATEGORY('part','') ;
#256=PRODUCT_RELATED_PRODUCT_CATEGORY('detail', ' ', (#253)) ;
#257=PRODUCT_CATEGORY_RELATIONSHIP(' ', ' ', #255, #256);
#258=PRODUCT_DEFINITION('', '', #254, #1);
#259=PRODUCT_DEFINITION_SHAPE('NONE', 'NONE', #258);
#260=SHAPE_DEFINITION_REPRESENTATION(#259, #252);
#261=PRESENTATION_LAYER_ASSIGNMENT('1','Unnamed [1]',(#243));
#262=MECHANICAL_DESIGN_GEOMETRIC_PRESENTATION_REPRESENTATION('',(#251), #18);
ENDSEC;
END-ISO-10303-21;
