ISO-10303-21;
HEADER;
FILE_DESCRIPTION((''),'2;1');
FILE_NAME('C:/Program Files/Kubotek/KeyCreatorPro.2021.SP0/STEP/SG1527.STP', '2021-02-12T18:09:38',(''), (''), 'KCM Version 2.0.6974.6974', 'KeyCreator Pro', '');
FILE_SCHEMA(('AUTOMOTIVE_DESIGN'));
ENDSEC;
DATA;
#1=PRODUCT_DEFINITION_CONTEXT('',#4,'design');
#2=PRODUCT_CONTEXT('',#4,'mechanical');
#3=APPLICATION_PROTOCOL_DEFINITION('International Standard','automotive_design',2001,#4);
#4=APPLICATION_CONTEXT('automotive design');
#10=DIMENSIONAL_EXPONENTS(1.0,0.0,0.0,0.0,0.0,0.0,0.0);
#11=DIMENSIONAL_EXPONENTS(0.0,0.0,0.0,0.0,0.0,0.0,0.0);
#12=(NAMED_UNIT(#10)LENGTH_UNIT()SI_UNIT(.MILLI.,.METRE.));
#13=(NAMED_UNIT(#11)PLANE_ANGLE_UNIT()SI_UNIT($,.RADIAN.));
#14=(NAMED_UNIT(#11)SOLID_ANGLE_UNIT()SI_UNIT($,.STERADIAN.));
#15=LENGTH_MEASURE_WITH_UNIT(LENGTH_MEASURE(25.4),#12);
#16= (CONVERSION_BASED_UNIT('INCH',#15)LENGTH_UNIT()NAMED_UNIT(#10));
#17=UNCERTAINTY_MEASURE_WITH_UNIT(LENGTH_MEASURE(1.0E-006),#16,'','');
#18=(GEOMETRIC_REPRESENTATION_CONTEXT(3)GLOBAL_UNCERTAINTY_ASSIGNED_CONTEXT((#17))GLOBAL_UNIT_ASSIGNED_CONTEXT((#16,#13,#14))REPRESENTATION_CONTEXT('NONE','WORKSPACE'));
#20=CARTESIAN_POINT('',(0.00000000000000,0.00000000000000,0.00000000000000));
#21=DIRECTION('',(0.00000000000000,0.00000000000000,1.00000000000000));
#22=DIRECTION('',(1.00000000000000,0.00000000000000,0.00000000000000));
#23=AXIS2_PLACEMENT_3D('',#20,#21,#22);
#24=CARTESIAN_POINT('',(3.18584748094945,12.9364186001129,-0.375000000000001));
#25=VERTEX_POINT('',#24);
#26=CARTESIAN_POINT('',(3.18584748094945,12.9364186001129,0.375000000000001));
#27=VERTEX_POINT('',#26);
#28=CARTESIAN_POINT('',(3.18584748094945,12.9364186001129,0.375000000000001));
#29=DIRECTION('',(0.00000000000000,1.18423789293350E-15,1.00000000000000));
#30=VECTOR('',#29,1.00000000000000);
#31=LINE('',#28,#30);
#32=EDGE_CURVE('',#25,#27,#31,.T.);
#33=ORIENTED_EDGE('',*,*,#32,.T.);
#34=CARTESIAN_POINT('',(3.18584748094945,6.93641860011288,0.375000000000001));
#35=VERTEX_POINT('',#34);
#36=CARTESIAN_POINT('',(3.18584748094945,6.93641860011288,0.375000000000001));
#37=DIRECTION('',(0.00000000000000,1.00000000000000,0.00000000000000));
#38=VECTOR('',#37,1.00000000000000);
#39=LINE('',#36,#38);
#40=EDGE_CURVE('',#35,#27,#39,.T.);
#41=ORIENTED_EDGE('',*,*,#40,.F.);
#42=CARTESIAN_POINT('',(3.18584748094945,6.93641860011287,-0.375000000000001));
#43=VERTEX_POINT('',#42);
#44=CARTESIAN_POINT('',(3.18584748094945,6.93641860011288,0.375000000000001));
#45=DIRECTION('',(0.00000000000000,-1.18423789293350E-15,-1.00000000000000));
#46=VECTOR('',#45,1.00000000000000);
#47=LINE('',#44,#46);
#48=EDGE_CURVE('',#35,#43,#47,.T.);
#49=ORIENTED_EDGE('',*,*,#48,.T.);
#50=CARTESIAN_POINT('',(3.18584748094945,6.93641860011287,-0.375000000000001));
#51=DIRECTION('',(0.00000000000000,1.00000000000000,0.00000000000000));
#52=VECTOR('',#51,1.00000000000000);
#53=LINE('',#50,#52);
#54=EDGE_CURVE('',#43,#25,#53,.T.);
#55=ORIENTED_EDGE('',*,*,#54,.T.);
#56=EDGE_LOOP('',(#33,#41,#49,#55));
#57=FACE_OUTER_BOUND('',#56,.T.);
#58=CARTESIAN_POINT('',(3.18584748094945,6.93641860011287,0.00000000000000));
#59=DIRECTION('',(1.00000000000000,-0.00000000000000,0.00000000000000));
#60=DIRECTION('',(0.00000000000000,-1.18423789293350E-15,-1.00000000000000));
#61=AXIS2_PLACEMENT_3D('',#58,#59,#60);
#62=PLANE('',#61);
#63=ADVANCED_FACE('',(#57),#62,.T.);
#64=CARTESIAN_POINT('',(3.12584748094944,12.9364186001129,0.375000000000001));
#65=VERTEX_POINT('',#64);
#66=CARTESIAN_POINT('',(3.15584748094944,12.9364186001129,0.375000000000001));
#67=DIRECTION('',(0.00000000000000,-1.00000000000000,6.12323399573677E-17));
#68=DIRECTION('',(1.00000000000000,0.00000000000000,0.00000000000000));
#69=AXIS2_PLACEMENT_3D('',#66,#67,#68);
#70=CIRCLE('',#69,0.0300000000000000);
#71=EDGE_CURVE('',#27,#65,#70,.T.);
#72=ORIENTED_EDGE('',*,*,#71,.T.);
#73=CARTESIAN_POINT('',(3.12584748094944,6.93641860011288,0.375000000000001));
#74=VERTEX_POINT('',#73);
#75=CARTESIAN_POINT('',(3.12584748094944,6.93641860011288,0.375000000000001));
#76=DIRECTION('',(0.00000000000000,1.00000000000000,0.00000000000000));
#77=VECTOR('',#76,1.00000000000000);
#78=LINE('',#75,#77);
#79=EDGE_CURVE('',#74,#65,#78,.T.);
#80=ORIENTED_EDGE('',*,*,#79,.F.);
#81=CARTESIAN_POINT('',(3.15584748094944,6.93641860011288,0.375000000000001));
#82=DIRECTION('',(0.00000000000000,-1.00000000000000,6.12323399573677E-17));
#83=DIRECTION('',(1.00000000000000,0.00000000000000,0.00000000000000));
#84=AXIS2_PLACEMENT_3D('',#81,#82,#83);
#85=CIRCLE('',#84,0.0300000000000000);
#86=EDGE_CURVE('',#35,#74,#85,.T.);
#87=ORIENTED_EDGE('',*,*,#86,.F.);
#88=ORIENTED_EDGE('',*,*,#40,.T.);
#89=EDGE_LOOP('',(#72,#80,#87,#88));
#90=FACE_OUTER_BOUND('',#89,.T.);
#91=CARTESIAN_POINT('',(3.15584748094944,6.93641860011288,0.375000000000001));
#92=DIRECTION('',(0.00000000000000,1.00000000000000,0.00000000000000));
#93=DIRECTION('',(0.00000000000000,0.00000000000000,-1.00000000000000));
#94=AXIS2_PLACEMENT_3D('',#91,#92,#93);
#95=CYLINDRICAL_SURFACE('',#94,0.0300000000000000);
#96=ADVANCED_FACE('',(#90),#95,.T.);
#97=CARTESIAN_POINT('',(3.12584748094944,12.9364186001129,-0.435000000000000));
#98=VERTEX_POINT('',#97);
#99=CARTESIAN_POINT('',(3.12584748094944,12.9364186001129,0.375000000000001));
#100=DIRECTION('',(0.00000000000000,-1.09651656753102E-15,-1.00000000000000));
#101=VECTOR('',#100,1.00000000000000);
#102=LINE('',#99,#101);
#103=EDGE_CURVE('',#65,#98,#102,.T.);
#104=ORIENTED_EDGE('',*,*,#103,.T.);
#105=CARTESIAN_POINT('',(3.12584748094944,6.93641860011287,-0.435000000000000));
#106=VERTEX_POINT('',#105);
#107=CARTESIAN_POINT('',(3.12584748094944,6.93641860011287,-0.435000000000000));
#108=DIRECTION('',(0.00000000000000,1.00000000000000,0.00000000000000));
#109=VECTOR('',#108,1.00000000000000);
#110=LINE('',#107,#109);
#111=EDGE_CURVE('',#106,#98,#110,.T.);
#112=ORIENTED_EDGE('',*,*,#111,.F.);
#113=CARTESIAN_POINT('',(3.12584748094944,6.93641860011288,0.375000000000001));
#114=DIRECTION('',(0.00000000000000,-1.09651656753102E-15,-1.00000000000000));
#115=VECTOR('',#114,1.00000000000000);
#116=LINE('',#113,#115);
#117=EDGE_CURVE('',#74,#106,#116,.T.);
#118=ORIENTED_EDGE('',*,*,#117,.F.);
#119=ORIENTED_EDGE('',*,*,#79,.T.);
#120=EDGE_LOOP('',(#104,#112,#118,#119));
#121=FACE_OUTER_BOUND('',#120,.T.);
#122=CARTESIAN_POINT('',(3.12584748094944,6.93641860011287,-0.0299999999999998));
#123=DIRECTION('',(-1.00000000000000,0.00000000000000,-0.00000000000000));
#124=DIRECTION('',(-0.00000000000000,1.09651656753102E-15,1.00000000000000));
#125=AXIS2_PLACEMENT_3D('',#122,#123,#124);
#126=PLANE('',#125);
#127=ADVANCED_FACE('',(#121),#126,.T.);
#128=CARTESIAN_POINT('',(4.15584748094945,12.9364186001129,-0.435000000000000));
#129=VERTEX_POINT('',#128);
#130=CARTESIAN_POINT('',(4.15584748094945,12.9364186001129,-0.435000000000000));
#131=DIRECTION('',(1.00000000000000,0.00000000000000,0.00000000000000));
#132=VECTOR('',#131,1.00000000000000);
#133=LINE('',#130,#132);
#134=EDGE_CURVE('',#98,#129,#133,.T.);
#135=ORIENTED_EDGE('',*,*,#134,.T.);
#136=CARTESIAN_POINT('',(4.15584748094945,6.93641860011287,-0.435000000000000));
#137=VERTEX_POINT('',#136);
#138=CARTESIAN_POINT('',(4.15584748094945,6.93641860011287,-0.435000000000000));
#139=DIRECTION('',(0.00000000000000,1.00000000000000,0.00000000000000));
#140=VECTOR('',#139,1.00000000000000);
#141=LINE('',#138,#140);
#142=EDGE_CURVE('',#137,#129,#141,.T.);
#143=ORIENTED_EDGE('',*,*,#142,.F.);
#144=CARTESIAN_POINT('',(4.15584748094945,6.93641860011287,-0.435000000000000));
#145=DIRECTION('',(-1.00000000000000,0.00000000000000,0.00000000000000));
#146=VECTOR('',#145,1.00000000000000);
#147=LINE('',#144,#146);
#148=EDGE_CURVE('',#137,#106,#147,.T.);
#149=ORIENTED_EDGE('',*,*,#148,.T.);
#150=ORIENTED_EDGE('',*,*,#111,.T.);
#151=EDGE_LOOP('',(#135,#143,#149,#150));
#152=FACE_OUTER_BOUND('',#151,.T.);
#153=CARTESIAN_POINT('',(3.64084748094944,6.93641860011287,-0.435000000000000));
#154=DIRECTION('',(0.00000000000000,0.00000000000000,-1.00000000000000));
#155=DIRECTION('',(-1.00000000000000,0.00000000000000,0.00000000000000));
#156=AXIS2_PLACEMENT_3D('',#153,#154,#155);
#157=PLANE('',#156);
#158=ADVANCED_FACE('',(#152),#157,.T.);
#159=CARTESIAN_POINT('',(4.15584748094945,12.9364186001129,-0.375000000000000));
#160=VERTEX_POINT('',#159);
#161=CARTESIAN_POINT('',(4.15584748094945,12.9364186001129,-0.404999999999999));
#162=DIRECTION('',(0.00000000000000,-1.00000000000000,6.12323399573677E-17));
#163=DIRECTION('',(1.00000000000000,0.00000000000000,0.00000000000000));
#164=AXIS2_PLACEMENT_3D('',#161,#162,#163);
#165=CIRCLE('',#164,0.0299999999999998);
#166=EDGE_CURVE('',#129,#160,#165,.T.);
#167=ORIENTED_EDGE('',*,*,#166,.T.);
#168=CARTESIAN_POINT('',(4.15584748094945,6.93641860011287,-0.375000000000000));
#169=VERTEX_POINT('',#168);
#170=CARTESIAN_POINT('',(4.15584748094945,6.93641860011287,-0.375000000000000));
#171=DIRECTION('',(0.00000000000000,1.00000000000000,0.00000000000000));
#172=VECTOR('',#171,1.00000000000000);
#173=LINE('',#170,#172);
#174=EDGE_CURVE('',#169,#160,#173,.T.);
#175=ORIENTED_EDGE('',*,*,#174,.F.);
#176=CARTESIAN_POINT('',(4.15584748094945,6.93641860011287,-0.404999999999999));
#177=DIRECTION('',(0.00000000000000,-1.00000000000000,6.12323399573677E-17));
#178=DIRECTION('',(1.00000000000000,0.00000000000000,0.00000000000000));
#179=AXIS2_PLACEMENT_3D('',#176,#177,#178);
#180=CIRCLE('',#179,0.0299999999999998);
#181=EDGE_CURVE('',#137,#169,#180,.T.);
#182=ORIENTED_EDGE('',*,*,#181,.F.);
#183=ORIENTED_EDGE('',*,*,#142,.T.);
#184=EDGE_LOOP('',(#167,#175,#182,#183));
#185=FACE_OUTER_BOUND('',#184,.T.);
#186=CARTESIAN_POINT('',(4.15584748094945,6.93641860011287,-0.404999999999999));
#187=DIRECTION('',(0.00000000000000,1.00000000000000,0.00000000000000));
#188=DIRECTION('',(-1.00000000000000,0.00000000000000,0.00000000000000));
#189=AXIS2_PLACEMENT_3D('',#186,#187,#188);
#190=CYLINDRICAL_SURFACE('',#189,0.0299999999999998);
#191=ADVANCED_FACE('',(#185),#190,.T.);
#192=CARTESIAN_POINT('',(4.15584748094945,12.9364186001129,-0.375000000000000));
#193=DIRECTION('',(-1.00000000000000,0.00000000000000,-9.15647855360954E-16));
#194=VECTOR('',#193,1.00000000000000);
#195=LINE('',#192,#194);
#196=EDGE_CURVE('',#160,#25,#195,.T.);
#197=ORIENTED_EDGE('',*,*,#196,.T.);
#198=ORIENTED_EDGE('',*,*,#54,.F.);
#199=CARTESIAN_POINT('',(4.15584748094945,6.93641860011287,-0.375000000000000));
#200=DIRECTION('',(-1.00000000000000,0.00000000000000,-9.15647855360954E-16));
#201=VECTOR('',#200,1.00000000000000);
#202=LINE('',#199,#201);
#203=EDGE_CURVE('',#169,#43,#202,.T.);
#204=ORIENTED_EDGE('',*,*,#203,.F.);
#205=ORIENTED_EDGE('',*,*,#174,.T.);
#206=EDGE_LOOP('',(#197,#198,#204,#205));
#207=FACE_OUTER_BOUND('',#206,.T.);
#208=CARTESIAN_POINT('',(3.67084748094944,6.93641860011287,-0.375000000000000));
#209=DIRECTION('',(-9.15647855360954E-16,0.00000000000000,1.00000000000000));
#210=DIRECTION('',(1.00000000000000,-0.00000000000000,9.15647855360954E-16));
#211=AXIS2_PLACEMENT_3D('',#208,#209,#210);
#212=PLANE('',#211);
#213=ADVANCED_FACE('',(#207),#212,.T.);
#214=ORIENTED_EDGE('',*,*,#32,.F.);
#215=ORIENTED_EDGE('',*,*,#196,.F.);
#216=ORIENTED_EDGE('',*,*,#166,.F.);
#217=ORIENTED_EDGE('',*,*,#134,.F.);
#218=ORIENTED_EDGE('',*,*,#103,.F.);
#219=ORIENTED_EDGE('',*,*,#71,.F.);
#220=EDGE_LOOP('',(#214,#215,#216,#217,#218,#219));
#221=FACE_OUTER_BOUND('',#220,.T.);
#222=CARTESIAN_POINT('',(3.85289223094945,12.9364186001129,-0.375000000000000));
#223=DIRECTION('',(0.00000000000000,1.00000000000000,0.00000000000000));
#224=DIRECTION('',(-1.00000000000000,0.00000000000000,0.00000000000000));
#225=AXIS2_PLACEMENT_3D('',#222,#223,#224);
#226=PLANE('',#225);
#227=ADVANCED_FACE('',(#221),#226,.T.);
#228=ORIENTED_EDGE('',*,*,#203,.T.);
#229=ORIENTED_EDGE('',*,*,#48,.F.);
#230=ORIENTED_EDGE('',*,*,#86,.T.);
#231=ORIENTED_EDGE('',*,*,#117,.T.);
#232=ORIENTED_EDGE('',*,*,#148,.F.);
#233=ORIENTED_EDGE('',*,*,#181,.T.);
#234=EDGE_LOOP('',(#228,#229,#230,#231,#232,#233));
#235=FACE_OUTER_BOUND('',#234,.T.);
#236=CARTESIAN_POINT('',(3.85289223094945,6.93641860011287,-0.375000000000000));
#237=DIRECTION('',(-0.00000000000000,1.00000000000000,-0.00000000000000));
#238=DIRECTION('',(-1.00000000000000,-0.00000000000000,0.00000000000000));
#239=AXIS2_PLACEMENT_3D('',#236,#237,#238);
#240=PLANE('',#239);
#241=ADVANCED_FACE('',(#235),#240,.F.);
#242=CLOSED_SHELL('',(#63,#96,#127,#158,#191,#213,#227,#241));
#243=MANIFOLD_SOLID_BREP('',#242);
#244=COLOUR_RGB('',1.00000000000000,0.00000000000000,0.00000000000000);
#245=FILL_AREA_STYLE_COLOUR('',#244);
#246=FILL_AREA_STYLE('',(#245));
#247=SURFACE_STYLE_FILL_AREA(#246);
#248=SURFACE_SIDE_STYLE('',(#247));
#249=SURFACE_STYLE_USAGE(.BOTH.,#248);
#250=PRESENTATION_STYLE_ASSIGNMENT((#249));
#251=STYLED_ITEM('',(#250),#243);
#252=ADVANCED_BREP_SHAPE_REPRESENTATION('',(#243,#23),#18);
#253=PRODUCT('', '', ' ',(#2));
#254=PRODUCT_DEFINITION_FORMATION_WITH_SPECIFIED_SOURCE (' ', ' ', #253, .NOT_KNOWN.) ;
#255=PRODUCT_CATEGORY('part','') ;
#256=PRODUCT_RELATED_PRODUCT_CATEGORY('detail', ' ', (#253)) ;
#257=PRODUCT_CATEGORY_RELATIONSHIP(' ', ' ', #255, #256);
#258=PRODUCT_DEFINITION('', '', #254, #1);
#259=PRODUCT_DEFINITION_SHAPE('NONE', 'NONE', #258);
#260=SHAPE_DEFINITION_REPRESENTATION(#259, #252);
#261=PRESENTATION_LAYER_ASSIGNMENT('1','Unnamed [1]',(#243));
#262=MECHANICAL_DESIGN_GEOMETRIC_PRESENTATION_REPRESENTATION('',(#251), #18);
ENDSEC;
END-ISO-10303-21;
