ISO-10303-21;
HEADER;
FILE_DESCRIPTION((''),'2;1');
FILE_NAME('C:/Program Files/Kubotek/KeyCreatorPro.2021.SP0/STEP/SG1406.STP', '2021-02-02T21:32:03',(''), (''), 'KCM Version 2.0.6974.6974', 'KeyCreator Pro', '');
FILE_SCHEMA(('AUTOMOTIVE_DESIGN'));
ENDSEC;
DATA;
#1=PRODUCT_DEFINITION_CONTEXT('',#4,'design');
#2=PRODUCT_CONTEXT('',#4,'mechanical');
#3=APPLICATION_PROTOCOL_DEFINITION('International Standard','automotive_design',2001,#4);
#4=APPLICATION_CONTEXT('automotive design');
#10=DIMENSIONAL_EXPONENTS(1.0,0.0,0.0,0.0,0.0,0.0,0.0);
#11=DIMENSIONAL_EXPONENTS(0.0,0.0,0.0,0.0,0.0,0.0,0.0);
#12=(NAMED_UNIT(#10)LENGTH_UNIT()SI_UNIT(.MILLI.,.METRE.));
#13=(NAMED_UNIT(#11)PLANE_ANGLE_UNIT()SI_UNIT($,.RADIAN.));
#14=(NAMED_UNIT(#11)SOLID_ANGLE_UNIT()SI_UNIT($,.STERADIAN.));
#15=LENGTH_MEASURE_WITH_UNIT(LENGTH_MEASURE(25.4),#12);
#16= (CONVERSION_BASED_UNIT('INCH',#15)LENGTH_UNIT()NAMED_UNIT(#10));
#17=UNCERTAINTY_MEASURE_WITH_UNIT(LENGTH_MEASURE(1.0E-006),#16,'','');
#18=(GEOMETRIC_REPRESENTATION_CONTEXT(3)GLOBAL_UNCERTAINTY_ASSIGNED_CONTEXT((#17))GLOBAL_UNIT_ASSIGNED_CONTEXT((#16,#13,#14))REPRESENTATION_CONTEXT('NONE','WORKSPACE'));
#20=CARTESIAN_POINT('',(0.00000000000000,0.00000000000000,0.00000000000000));
#21=DIRECTION('',(0.00000000000000,0.00000000000000,1.00000000000000));
#22=DIRECTION('',(1.00000000000000,0.00000000000000,0.00000000000000));
#23=AXIS2_PLACEMENT_3D('',#20,#21,#22);
#24=CARTESIAN_POINT('',(4.80645780605928,12.1100663870231,-0.445498587788208));
#25=VERTEX_POINT('',#24);
#26=CARTESIAN_POINT('',(4.93145780605928,12.1100663870231,-0.445498587788208));
#27=VERTEX_POINT('',#26);
#28=CARTESIAN_POINT('',(4.80645780605928,12.1100663870231,-0.445498587788208));
#29=DIRECTION('',(1.00000000000000,0.00000000000000,0.00000000000000));
#30=VECTOR('',#29,1.00000000000000);
#31=LINE('',#28,#30);
#32=EDGE_CURVE('',#25,#27,#31,.T.);
#33=ORIENTED_EDGE('',*,*,#32,.T.);
#34=CARTESIAN_POINT('',(4.93145780605928,6.11006638702314,-0.445498587788208));
#35=VERTEX_POINT('',#34);
#36=CARTESIAN_POINT('',(4.93145780605928,6.11006638702314,-0.445498587788208));
#37=DIRECTION('',(0.00000000000000,1.00000000000000,0.00000000000000));
#38=VECTOR('',#37,1.00000000000000);
#39=LINE('',#36,#38);
#40=EDGE_CURVE('',#35,#27,#39,.T.);
#41=ORIENTED_EDGE('',*,*,#40,.F.);
#42=CARTESIAN_POINT('',(4.80645780605928,6.11006638702314,-0.445498587788208));
#43=VERTEX_POINT('',#42);
#44=CARTESIAN_POINT('',(4.80645780605928,6.11006638702314,-0.445498587788208));
#45=DIRECTION('',(1.00000000000000,0.00000000000000,0.00000000000000));
#46=VECTOR('',#45,1.00000000000000);
#47=LINE('',#44,#46);
#48=EDGE_CURVE('',#43,#35,#47,.T.);
#49=ORIENTED_EDGE('',*,*,#48,.F.);
#50=CARTESIAN_POINT('',(4.80645780605928,6.11006638702314,-0.445498587788208));
#51=DIRECTION('',(0.00000000000000,1.00000000000000,0.00000000000000));
#52=VECTOR('',#51,1.00000000000000);
#53=LINE('',#50,#52);
#54=EDGE_CURVE('',#43,#25,#53,.T.);
#55=ORIENTED_EDGE('',*,*,#54,.T.);
#56=EDGE_LOOP('',(#33,#41,#49,#55));
#57=FACE_OUTER_BOUND('',#56,.T.);
#58=CARTESIAN_POINT('',(4.86895780605928,6.11006638702314,-0.445498587788208));
#59=DIRECTION('',(0.00000000000000,0.00000000000000,-1.00000000000000));
#60=DIRECTION('',(-1.00000000000000,-0.00000000000000,-0.00000000000000));
#61=AXIS2_PLACEMENT_3D('',#58,#59,#60);
#62=PLANE('',#61);
#63=ADVANCED_FACE('',(#57),#62,.T.);
#64=CARTESIAN_POINT('',(4.93145780605928,12.1100663870231,0.429501412211792));
#65=VERTEX_POINT('',#64);
#66=CARTESIAN_POINT('',(4.93145780605928,12.1100663870231,-0.445498587788208));
#67=DIRECTION('',(0.00000000000000,0.00000000000000,1.00000000000000));
#68=VECTOR('',#67,1.00000000000000);
#69=LINE('',#66,#68);
#70=EDGE_CURVE('',#27,#65,#69,.T.);
#71=ORIENTED_EDGE('',*,*,#70,.T.);
#72=CARTESIAN_POINT('',(4.93145780605928,6.11006638702314,0.429501412211792));
#73=VERTEX_POINT('',#72);
#74=CARTESIAN_POINT('',(4.93145780605928,6.11006638702314,0.429501412211792));
#75=DIRECTION('',(0.00000000000000,1.00000000000000,0.00000000000000));
#76=VECTOR('',#75,1.00000000000000);
#77=LINE('',#74,#76);
#78=EDGE_CURVE('',#73,#65,#77,.T.);
#79=ORIENTED_EDGE('',*,*,#78,.F.);
#80=CARTESIAN_POINT('',(4.93145780605928,6.11006638702314,-0.445498587788208));
#81=DIRECTION('',(0.00000000000000,0.00000000000000,1.00000000000000));
#82=VECTOR('',#81,1.00000000000000);
#83=LINE('',#80,#82);
#84=EDGE_CURVE('',#35,#73,#83,.T.);
#85=ORIENTED_EDGE('',*,*,#84,.F.);
#86=ORIENTED_EDGE('',*,*,#40,.T.);
#87=EDGE_LOOP('',(#71,#79,#85,#86));
#88=FACE_OUTER_BOUND('',#87,.T.);
#89=CARTESIAN_POINT('',(4.93145780605928,6.11006638702314,-0.00799858778820806));
#90=DIRECTION('',(1.00000000000000,0.00000000000000,0.00000000000000));
#91=DIRECTION('',(-0.00000000000000,-0.00000000000000,-1.00000000000000));
#92=AXIS2_PLACEMENT_3D('',#89,#90,#91);
#93=PLANE('',#92);
#94=ADVANCED_FACE('',(#88),#93,.T.);
#95=CARTESIAN_POINT('',(4.80645780605928,12.1100663870231,0.554501412211792));
#96=VERTEX_POINT('',#95);
#97=CARTESIAN_POINT('',(4.80645780605928,12.1100663870231,0.429501412211792));
#98=DIRECTION('',(0.00000000000000,-1.00000000000000,6.12323399573677E-17));
#99=DIRECTION('',(1.00000000000000,0.00000000000000,0.00000000000000));
#100=AXIS2_PLACEMENT_3D('',#97,#98,#99);
#101=CIRCLE('',#100,0.125000000000000);
#102=EDGE_CURVE('',#65,#96,#101,.T.);
#103=ORIENTED_EDGE('',*,*,#102,.T.);
#104=CARTESIAN_POINT('',(4.80645780605928,6.11006638702314,0.554501412211792));
#105=VERTEX_POINT('',#104);
#106=CARTESIAN_POINT('',(4.80645780605928,6.11006638702314,0.554501412211792));
#107=DIRECTION('',(0.00000000000000,1.00000000000000,0.00000000000000));
#108=VECTOR('',#107,1.00000000000000);
#109=LINE('',#106,#108);
#110=EDGE_CURVE('',#105,#96,#109,.T.);
#111=ORIENTED_EDGE('',*,*,#110,.F.);
#112=CARTESIAN_POINT('',(4.80645780605928,6.11006638702314,0.429501412211792));
#113=DIRECTION('',(0.00000000000000,-1.00000000000000,6.12323399573677E-17));
#114=DIRECTION('',(1.00000000000000,0.00000000000000,0.00000000000000));
#115=AXIS2_PLACEMENT_3D('',#112,#113,#114);
#116=CIRCLE('',#115,0.125000000000000);
#117=EDGE_CURVE('',#73,#105,#116,.T.);
#118=ORIENTED_EDGE('',*,*,#117,.F.);
#119=ORIENTED_EDGE('',*,*,#78,.T.);
#120=EDGE_LOOP('',(#103,#111,#118,#119));
#121=FACE_OUTER_BOUND('',#120,.T.);
#122=CARTESIAN_POINT('',(4.80645780605928,6.11006638702314,0.429501412211792));
#123=DIRECTION('',(0.00000000000000,1.00000000000000,0.00000000000000));
#124=DIRECTION('',(-0.707106781186546,0.00000000000000,-0.707106781186549));
#125=AXIS2_PLACEMENT_3D('',#122,#123,#124);
#126=CYLINDRICAL_SURFACE('',#125,0.125000000000000);
#127=ADVANCED_FACE('',(#121),#126,.T.);
#128=CARTESIAN_POINT('',(4.55645780605928,12.1100663870231,0.554501412211792));
#129=VERTEX_POINT('',#128);
#130=CARTESIAN_POINT('',(4.55645780605928,12.1100663870231,0.554501412211792));
#131=DIRECTION('',(-1.00000000000000,-0.00000000000000,-0.00000000000000));
#132=VECTOR('',#131,1.00000000000000);
#133=LINE('',#130,#132);
#134=EDGE_CURVE('',#96,#129,#133,.T.);
#135=ORIENTED_EDGE('',*,*,#134,.T.);
#136=CARTESIAN_POINT('',(4.55645780605928,6.11006638702314,0.554501412211792));
#137=VERTEX_POINT('',#136);
#138=CARTESIAN_POINT('',(4.55645780605928,6.11006638702314,0.554501412211792));
#139=DIRECTION('',(0.00000000000000,1.00000000000000,0.00000000000000));
#140=VECTOR('',#139,1.00000000000000);
#141=LINE('',#138,#140);
#142=EDGE_CURVE('',#137,#129,#141,.T.);
#143=ORIENTED_EDGE('',*,*,#142,.F.);
#144=CARTESIAN_POINT('',(4.55645780605928,6.11006638702314,0.554501412211792));
#145=DIRECTION('',(1.00000000000000,0.00000000000000,0.00000000000000));
#146=VECTOR('',#145,1.00000000000000);
#147=LINE('',#144,#146);
#148=EDGE_CURVE('',#137,#105,#147,.T.);
#149=ORIENTED_EDGE('',*,*,#148,.T.);
#150=ORIENTED_EDGE('',*,*,#110,.T.);
#151=EDGE_LOOP('',(#135,#143,#149,#150));
#152=FACE_OUTER_BOUND('',#151,.T.);
#153=CARTESIAN_POINT('',(4.68145780605928,6.11006638702314,0.554501412211792));
#154=DIRECTION('',(0.00000000000000,0.00000000000000,1.00000000000000));
#155=DIRECTION('',(1.00000000000000,0.00000000000000,0.00000000000000));
#156=AXIS2_PLACEMENT_3D('',#153,#154,#155);
#157=PLANE('',#156);
#158=ADVANCED_FACE('',(#152),#157,.T.);
#159=CARTESIAN_POINT('',(4.43145780605928,12.1100663870231,0.429501412211792));
#160=VERTEX_POINT('',#159);
#161=CARTESIAN_POINT('',(4.55645780605928,12.1100663870231,0.429501412211792));
#162=DIRECTION('',(0.00000000000000,-1.00000000000000,6.12323399573677E-17));
#163=DIRECTION('',(1.00000000000000,0.00000000000000,0.00000000000000));
#164=AXIS2_PLACEMENT_3D('',#161,#162,#163);
#165=CIRCLE('',#164,0.125000000000000);
#166=EDGE_CURVE('',#129,#160,#165,.T.);
#167=ORIENTED_EDGE('',*,*,#166,.T.);
#168=CARTESIAN_POINT('',(4.43145780605928,6.11006638702314,0.429501412211792));
#169=VERTEX_POINT('',#168);
#170=CARTESIAN_POINT('',(4.43145780605928,6.11006638702314,0.429501412211792));
#171=DIRECTION('',(0.00000000000000,1.00000000000000,0.00000000000000));
#172=VECTOR('',#171,1.00000000000000);
#173=LINE('',#170,#172);
#174=EDGE_CURVE('',#169,#160,#173,.T.);
#175=ORIENTED_EDGE('',*,*,#174,.F.);
#176=CARTESIAN_POINT('',(4.55645780605928,6.11006638702314,0.429501412211792));
#177=DIRECTION('',(0.00000000000000,-1.00000000000000,6.12323399573677E-17));
#178=DIRECTION('',(1.00000000000000,0.00000000000000,0.00000000000000));
#179=AXIS2_PLACEMENT_3D('',#176,#177,#178);
#180=CIRCLE('',#179,0.125000000000000);
#181=EDGE_CURVE('',#137,#169,#180,.T.);
#182=ORIENTED_EDGE('',*,*,#181,.F.);
#183=ORIENTED_EDGE('',*,*,#142,.T.);
#184=EDGE_LOOP('',(#167,#175,#182,#183));
#185=FACE_OUTER_BOUND('',#184,.T.);
#186=CARTESIAN_POINT('',(4.55645780605928,6.11006638702314,0.429501412211792));
#187=DIRECTION('',(0.00000000000000,1.00000000000000,0.00000000000000));
#188=DIRECTION('',(1.00000000000000,-0.00000000000000,0.00000000000000));
#189=AXIS2_PLACEMENT_3D('',#186,#187,#188);
#190=CYLINDRICAL_SURFACE('',#189,0.125000000000000);
#191=ADVANCED_FACE('',(#185),#190,.T.);
#192=CARTESIAN_POINT('',(4.43145780605928,12.1100663870231,-0.445498587788208));
#193=VERTEX_POINT('',#192);
#194=CARTESIAN_POINT('',(4.43145780605928,12.1100663870231,-0.445498587788208));
#195=DIRECTION('',(-1.01506105108586E-15,-0.00000000000000,-1.00000000000000));
#196=VECTOR('',#195,1.00000000000000);
#197=LINE('',#194,#196);
#198=EDGE_CURVE('',#160,#193,#197,.T.);
#199=ORIENTED_EDGE('',*,*,#198,.T.);
#200=CARTESIAN_POINT('',(4.43145780605928,6.11006638702314,-0.445498587788208));
#201=VERTEX_POINT('',#200);
#202=CARTESIAN_POINT('',(4.43145780605928,6.11006638702314,-0.445498587788208));
#203=DIRECTION('',(0.00000000000000,1.00000000000000,0.00000000000000));
#204=VECTOR('',#203,1.00000000000000);
#205=LINE('',#202,#204);
#206=EDGE_CURVE('',#201,#193,#205,.T.);
#207=ORIENTED_EDGE('',*,*,#206,.F.);
#208=CARTESIAN_POINT('',(4.43145780605928,6.11006638702314,-0.445498587788208));
#209=DIRECTION('',(1.01506105108586E-15,0.00000000000000,1.00000000000000));
#210=VECTOR('',#209,1.00000000000000);
#211=LINE('',#208,#210);
#212=EDGE_CURVE('',#201,#169,#211,.T.);
#213=ORIENTED_EDGE('',*,*,#212,.T.);
#214=ORIENTED_EDGE('',*,*,#174,.T.);
#215=EDGE_LOOP('',(#199,#207,#213,#214));
#216=FACE_OUTER_BOUND('',#215,.T.);
#217=CARTESIAN_POINT('',(4.43145780605928,6.11006638702314,-0.00799858778820806));
#218=DIRECTION('',(-1.00000000000000,0.00000000000000,1.01506105108586E-15));
#219=DIRECTION('',(1.01506105108586E-15,0.00000000000000,1.00000000000000));
#220=AXIS2_PLACEMENT_3D('',#217,#218,#219);
#221=PLANE('',#220);
#222=ADVANCED_FACE('',(#216),#221,.T.);
#223=CARTESIAN_POINT('',(4.55645780605928,12.1100663870231,-0.445498587788208));
#224=VERTEX_POINT('',#223);
#225=CARTESIAN_POINT('',(4.43145780605928,12.1100663870231,-0.445498587788208));
#226=DIRECTION('',(1.00000000000000,0.00000000000000,0.00000000000000));
#227=VECTOR('',#226,1.00000000000000);
#228=LINE('',#225,#227);
#229=EDGE_CURVE('',#193,#224,#228,.T.);
#230=ORIENTED_EDGE('',*,*,#229,.T.);
#231=CARTESIAN_POINT('',(4.55645780605928,6.11006638702314,-0.445498587788208));
#232=VERTEX_POINT('',#231);
#233=CARTESIAN_POINT('',(4.55645780605928,6.11006638702314,-0.445498587788208));
#234=DIRECTION('',(0.00000000000000,1.00000000000000,0.00000000000000));
#235=VECTOR('',#234,1.00000000000000);
#236=LINE('',#233,#235);
#237=EDGE_CURVE('',#232,#224,#236,.T.);
#238=ORIENTED_EDGE('',*,*,#237,.F.);
#239=CARTESIAN_POINT('',(4.43145780605928,6.11006638702314,-0.445498587788208));
#240=DIRECTION('',(1.00000000000000,0.00000000000000,0.00000000000000));
#241=VECTOR('',#240,1.00000000000000);
#242=LINE('',#239,#241);
#243=EDGE_CURVE('',#201,#232,#242,.T.);
#244=ORIENTED_EDGE('',*,*,#243,.F.);
#245=ORIENTED_EDGE('',*,*,#206,.T.);
#246=EDGE_LOOP('',(#230,#238,#244,#245));
#247=FACE_OUTER_BOUND('',#246,.T.);
#248=CARTESIAN_POINT('',(4.49395780605928,6.11006638702314,-0.445498587788208));
#249=DIRECTION('',(0.00000000000000,0.00000000000000,-1.00000000000000));
#250=DIRECTION('',(-1.00000000000000,-0.00000000000000,-0.00000000000000));
#251=AXIS2_PLACEMENT_3D('',#248,#249,#250);
#252=PLANE('',#251);
#253=ADVANCED_FACE('',(#247),#252,.T.);
#254=CARTESIAN_POINT('',(4.55645780605928,12.1100663870231,0.367501412211791));
#255=VERTEX_POINT('',#254);
#256=CARTESIAN_POINT('',(4.55645780605928,12.1100663870231,-0.445498587788208));
#257=DIRECTION('',(0.00000000000000,0.00000000000000,1.00000000000000));
#258=VECTOR('',#257,1.00000000000000);
#259=LINE('',#256,#258);
#260=EDGE_CURVE('',#224,#255,#259,.T.);
#261=ORIENTED_EDGE('',*,*,#260,.T.);
#262=CARTESIAN_POINT('',(4.55645780605928,6.11006638702314,0.367501412211791));
#263=VERTEX_POINT('',#262);
#264=CARTESIAN_POINT('',(4.55645780605928,6.11006638702314,0.367501412211791));
#265=DIRECTION('',(0.00000000000000,1.00000000000000,0.00000000000000));
#266=VECTOR('',#265,1.00000000000000);
#267=LINE('',#264,#266);
#268=EDGE_CURVE('',#263,#255,#267,.T.);
#269=ORIENTED_EDGE('',*,*,#268,.F.);
#270=CARTESIAN_POINT('',(4.55645780605928,6.11006638702314,-0.445498587788208));
#271=DIRECTION('',(0.00000000000000,0.00000000000000,1.00000000000000));
#272=VECTOR('',#271,1.00000000000000);
#273=LINE('',#270,#272);
#274=EDGE_CURVE('',#232,#263,#273,.T.);
#275=ORIENTED_EDGE('',*,*,#274,.F.);
#276=ORIENTED_EDGE('',*,*,#237,.T.);
#277=EDGE_LOOP('',(#261,#269,#275,#276));
#278=FACE_OUTER_BOUND('',#277,.T.);
#279=CARTESIAN_POINT('',(4.55645780605928,6.11006638702314,-0.0389985877882086));
#280=DIRECTION('',(1.00000000000000,0.00000000000000,0.00000000000000));
#281=DIRECTION('',(-0.00000000000000,-0.00000000000000,-1.00000000000000));
#282=AXIS2_PLACEMENT_3D('',#279,#280,#281);
#283=PLANE('',#282);
#284=ADVANCED_FACE('',(#278),#283,.T.);
#285=CARTESIAN_POINT('',(4.61845780605928,12.1100663870231,0.429501412211791));
#286=VERTEX_POINT('',#285);
#287=CARTESIAN_POINT('',(4.61845780605928,12.1100663870231,0.367501412211791));
#288=DIRECTION('',(0.00000000000000,1.00000000000000,-6.12323399573677E-17));
#289=DIRECTION('',(1.00000000000000,0.00000000000000,0.00000000000000));
#290=AXIS2_PLACEMENT_3D('',#287,#288,#289);
#291=CIRCLE('',#290,0.0620000000000000);
#292=EDGE_CURVE('',#255,#286,#291,.T.);
#293=ORIENTED_EDGE('',*,*,#292,.T.);
#294=CARTESIAN_POINT('',(4.61845780605928,6.11006638702314,0.429501412211791));
#295=VERTEX_POINT('',#294);
#296=CARTESIAN_POINT('',(4.61845780605928,6.11006638702314,0.429501412211791));
#297=DIRECTION('',(0.00000000000000,1.00000000000000,0.00000000000000));
#298=VECTOR('',#297,1.00000000000000);
#299=LINE('',#296,#298);
#300=EDGE_CURVE('',#295,#286,#299,.T.);
#301=ORIENTED_EDGE('',*,*,#300,.F.);
#302=CARTESIAN_POINT('',(4.61845780605928,6.11006638702314,0.367501412211791));
#303=DIRECTION('',(0.00000000000000,-1.00000000000000,6.12323399573677E-17));
#304=DIRECTION('',(1.00000000000000,0.00000000000000,0.00000000000000));
#305=AXIS2_PLACEMENT_3D('',#302,#303,#304);
#306=CIRCLE('',#305,0.0620000000000000);
#307=EDGE_CURVE('',#295,#263,#306,.T.);
#308=ORIENTED_EDGE('',*,*,#307,.T.);
#309=ORIENTED_EDGE('',*,*,#268,.T.);
#310=EDGE_LOOP('',(#293,#301,#308,#309));
#311=FACE_OUTER_BOUND('',#310,.T.);
#312=CARTESIAN_POINT('',(4.61845780605928,6.11006638702314,0.367501412211791));
#313=DIRECTION('',(0.00000000000000,1.00000000000000,0.00000000000000));
#314=DIRECTION('',(1.00000000000000,-0.00000000000000,0.00000000000000));
#315=AXIS2_PLACEMENT_3D('',#312,#313,#314);
#316=CYLINDRICAL_SURFACE('',#315,0.0620000000000000);
#317=ADVANCED_FACE('',(#311),#316,.F.);
#318=CARTESIAN_POINT('',(4.74445780605928,12.1100663870231,0.429501412211791));
#319=VERTEX_POINT('',#318);
#320=CARTESIAN_POINT('',(4.61845780605928,12.1100663870231,0.429501412211792));
#321=DIRECTION('',(1.00000000000000,0.00000000000000,0.00000000000000));
#322=VECTOR('',#321,1.00000000000000);
#323=LINE('',#320,#322);
#324=EDGE_CURVE('',#286,#319,#323,.T.);
#325=ORIENTED_EDGE('',*,*,#324,.T.);
#326=CARTESIAN_POINT('',(4.74445780605928,6.11006638702314,0.429501412211791));
#327=VERTEX_POINT('',#326);
#328=CARTESIAN_POINT('',(4.74445780605928,6.11006638702314,0.429501412211791));
#329=DIRECTION('',(0.00000000000000,1.00000000000000,0.00000000000000));
#330=VECTOR('',#329,1.00000000000000);
#331=LINE('',#328,#330);
#332=EDGE_CURVE('',#327,#319,#331,.T.);
#333=ORIENTED_EDGE('',*,*,#332,.F.);
#334=CARTESIAN_POINT('',(4.61845780605928,6.11006638702314,0.429501412211792));
#335=DIRECTION('',(1.00000000000000,0.00000000000000,0.00000000000000));
#336=VECTOR('',#335,1.00000000000000);
#337=LINE('',#334,#336);
#338=EDGE_CURVE('',#295,#327,#337,.T.);
#339=ORIENTED_EDGE('',*,*,#338,.F.);
#340=ORIENTED_EDGE('',*,*,#300,.T.);
#341=EDGE_LOOP('',(#325,#333,#339,#340));
#342=FACE_OUTER_BOUND('',#341,.T.);
#343=CARTESIAN_POINT('',(4.68145780605928,6.11006638702314,0.429501412211792));
#344=DIRECTION('',(0.00000000000000,0.00000000000000,-1.00000000000000));
#345=DIRECTION('',(-1.00000000000000,-0.00000000000000,-0.00000000000000));
#346=AXIS2_PLACEMENT_3D('',#343,#344,#345);
#347=PLANE('',#346);
#348=ADVANCED_FACE('',(#342),#347,.T.);
#349=CARTESIAN_POINT('',(4.80645780605928,12.1100663870231,0.367501412211791));
#350=VERTEX_POINT('',#349);
#351=CARTESIAN_POINT('',(4.74445780605928,12.1100663870231,0.367501412211791));
#352=DIRECTION('',(0.00000000000000,1.00000000000000,-6.12323399573677E-17));
#353=DIRECTION('',(1.00000000000000,0.00000000000000,0.00000000000000));
#354=AXIS2_PLACEMENT_3D('',#351,#352,#353);
#355=CIRCLE('',#354,0.0620000000000000);
#356=EDGE_CURVE('',#319,#350,#355,.T.);
#357=ORIENTED_EDGE('',*,*,#356,.T.);
#358=CARTESIAN_POINT('',(4.80645780605928,6.11006638702314,0.367501412211791));
#359=VERTEX_POINT('',#358);
#360=CARTESIAN_POINT('',(4.80645780605928,6.11006638702314,0.367501412211791));
#361=DIRECTION('',(0.00000000000000,1.00000000000000,0.00000000000000));
#362=VECTOR('',#361,1.00000000000000);
#363=LINE('',#360,#362);
#364=EDGE_CURVE('',#359,#350,#363,.T.);
#365=ORIENTED_EDGE('',*,*,#364,.F.);
#366=CARTESIAN_POINT('',(4.74445780605928,6.11006638702314,0.367501412211791));
#367=DIRECTION('',(0.00000000000000,-1.00000000000000,6.12323399573677E-17));
#368=DIRECTION('',(1.00000000000000,0.00000000000000,0.00000000000000));
#369=AXIS2_PLACEMENT_3D('',#366,#367,#368);
#370=CIRCLE('',#369,0.0620000000000000);
#371=EDGE_CURVE('',#359,#327,#370,.T.);
#372=ORIENTED_EDGE('',*,*,#371,.T.);
#373=ORIENTED_EDGE('',*,*,#332,.T.);
#374=EDGE_LOOP('',(#357,#365,#372,#373));
#375=FACE_OUTER_BOUND('',#374,.T.);
#376=CARTESIAN_POINT('',(4.74445780605928,6.11006638702314,0.367501412211791));
#377=DIRECTION('',(0.00000000000000,1.00000000000000,0.00000000000000));
#378=DIRECTION('',(-0.707106781186549,0.00000000000000,-0.707106781186546));
#379=AXIS2_PLACEMENT_3D('',#376,#377,#378);
#380=CYLINDRICAL_SURFACE('',#379,0.0620000000000000);
#381=ADVANCED_FACE('',(#375),#380,.F.);
#382=CARTESIAN_POINT('',(4.80645780605928,12.1100663870231,-0.445498587788208));
#383=DIRECTION('',(-0.00000000000000,-0.00000000000000,-1.00000000000000));
#384=VECTOR('',#383,1.00000000000000);
#385=LINE('',#382,#384);
#386=EDGE_CURVE('',#350,#25,#385,.T.);
#387=ORIENTED_EDGE('',*,*,#386,.T.);
#388=ORIENTED_EDGE('',*,*,#54,.F.);
#389=CARTESIAN_POINT('',(4.80645780605928,6.11006638702314,-0.445498587788208));
#390=DIRECTION('',(0.00000000000000,0.00000000000000,1.00000000000000));
#391=VECTOR('',#390,1.00000000000000);
#392=LINE('',#389,#391);
#393=EDGE_CURVE('',#43,#359,#392,.T.);
#394=ORIENTED_EDGE('',*,*,#393,.T.);
#395=ORIENTED_EDGE('',*,*,#364,.T.);
#396=EDGE_LOOP('',(#387,#388,#394,#395));
#397=FACE_OUTER_BOUND('',#396,.T.);
#398=CARTESIAN_POINT('',(4.80645780605928,6.11006638702314,-0.0389985877882086));
#399=DIRECTION('',(-1.00000000000000,0.00000000000000,0.00000000000000));
#400=DIRECTION('',(0.00000000000000,0.00000000000000,1.00000000000000));
#401=AXIS2_PLACEMENT_3D('',#398,#399,#400);
#402=PLANE('',#401);
#403=ADVANCED_FACE('',(#397),#402,.T.);
#404=ORIENTED_EDGE('',*,*,#32,.F.);
#405=ORIENTED_EDGE('',*,*,#386,.F.);
#406=ORIENTED_EDGE('',*,*,#356,.F.);
#407=ORIENTED_EDGE('',*,*,#324,.F.);
#408=ORIENTED_EDGE('',*,*,#292,.F.);
#409=ORIENTED_EDGE('',*,*,#260,.F.);
#410=ORIENTED_EDGE('',*,*,#229,.F.);
#411=ORIENTED_EDGE('',*,*,#198,.F.);
#412=ORIENTED_EDGE('',*,*,#166,.F.);
#413=ORIENTED_EDGE('',*,*,#134,.F.);
#414=ORIENTED_EDGE('',*,*,#102,.F.);
#415=ORIENTED_EDGE('',*,*,#70,.F.);
#416=EDGE_LOOP('',(#404,#405,#406,#407,#408,#409,#410,#411,#412,#413,#414,#415));
#417=FACE_OUTER_BOUND('',#416,.T.);
#418=CARTESIAN_POINT('',(4.80645780605928,12.1100663870231,-0.191578362788208));
#419=DIRECTION('',(0.00000000000000,1.00000000000000,0.00000000000000));
#420=DIRECTION('',(-1.00000000000000,0.00000000000000,0.00000000000000));
#421=AXIS2_PLACEMENT_3D('',#418,#419,#420);
#422=PLANE('',#421);
#423=ADVANCED_FACE('',(#417),#422,.T.);
#424=ORIENTED_EDGE('',*,*,#393,.F.);
#425=ORIENTED_EDGE('',*,*,#48,.T.);
#426=ORIENTED_EDGE('',*,*,#84,.T.);
#427=ORIENTED_EDGE('',*,*,#117,.T.);
#428=ORIENTED_EDGE('',*,*,#148,.F.);
#429=ORIENTED_EDGE('',*,*,#181,.T.);
#430=ORIENTED_EDGE('',*,*,#212,.F.);
#431=ORIENTED_EDGE('',*,*,#243,.T.);
#432=ORIENTED_EDGE('',*,*,#274,.T.);
#433=ORIENTED_EDGE('',*,*,#307,.F.);
#434=ORIENTED_EDGE('',*,*,#338,.T.);
#435=ORIENTED_EDGE('',*,*,#371,.F.);
#436=EDGE_LOOP('',(#424,#425,#426,#427,#428,#429,#430,#431,#432,#433,#434,#435));
#437=FACE_OUTER_BOUND('',#436,.T.);
#438=CARTESIAN_POINT('',(4.80645780605928,6.11006638702314,-0.191578362788208));
#439=DIRECTION('',(0.00000000000000,1.00000000000000,0.00000000000000));
#440=DIRECTION('',(-1.00000000000000,0.00000000000000,0.00000000000000));
#441=AXIS2_PLACEMENT_3D('',#438,#439,#440);
#442=PLANE('',#441);
#443=ADVANCED_FACE('',(#437),#442,.F.);
#444=CLOSED_SHELL('',(#63,#94,#127,#158,#191,#222,#253,#284,#317,#348,#381,#403,#423,#443));
#445=MANIFOLD_SOLID_BREP('',#444);
#446=COLOUR_RGB('',1.00000000000000,0.00000000000000,0.00000000000000);
#447=FILL_AREA_STYLE_COLOUR('',#446);
#448=FILL_AREA_STYLE('',(#447));
#449=SURFACE_STYLE_FILL_AREA(#448);
#450=SURFACE_SIDE_STYLE('',(#449));
#451=SURFACE_STYLE_USAGE(.BOTH.,#450);
#452=PRESENTATION_STYLE_ASSIGNMENT((#451));
#453=STYLED_ITEM('',(#452),#445);
#454=ADVANCED_BREP_SHAPE_REPRESENTATION('',(#445,#23),#18);
#455=PRODUCT('', '', ' ',(#2));
#456=PRODUCT_DEFINITION_FORMATION_WITH_SPECIFIED_SOURCE (' ', ' ', #455, .NOT_KNOWN.) ;
#457=PRODUCT_CATEGORY('part','') ;
#458=PRODUCT_RELATED_PRODUCT_CATEGORY('detail', ' ', (#455)) ;
#459=PRODUCT_CATEGORY_RELATIONSHIP(' ', ' ', #457, #458);
#460=PRODUCT_DEFINITION('', '', #456, #1);
#461=PRODUCT_DEFINITION_SHAPE('NONE', 'NONE', #460);
#462=SHAPE_DEFINITION_REPRESENTATION(#461, #454);
#463=PRESENTATION_LAYER_ASSIGNMENT('1','Unnamed [1]',(#445));
#464=MECHANICAL_DESIGN_GEOMETRIC_PRESENTATION_REPRESENTATION('',(#453), #18);
ENDSEC;
END-ISO-10303-21;
