ISO-10303-21;
HEADER;
FILE_DESCRIPTION((''),'2;1');
FILE_NAME('C:/Program Files/Kubotek/KeyCreatorPro.2021.SP0/STEP/SG1400.STP', '2021-02-04T21:27:25',(''), (''), 'KCM Version 2.0.6974.6974', 'KeyCreator Pro', '');
FILE_SCHEMA(('AUTOMOTIVE_DESIGN'));
ENDSEC;
DATA;
#1=PRODUCT_DEFINITION_CONTEXT('',#4,'design');
#2=PRODUCT_CONTEXT('',#4,'mechanical');
#3=APPLICATION_PROTOCOL_DEFINITION('International Standard','automotive_design',2001,#4);
#4=APPLICATION_CONTEXT('automotive design');
#10=DIMENSIONAL_EXPONENTS(1.0,0.0,0.0,0.0,0.0,0.0,0.0);
#11=DIMENSIONAL_EXPONENTS(0.0,0.0,0.0,0.0,0.0,0.0,0.0);
#12=(NAMED_UNIT(#10)LENGTH_UNIT()SI_UNIT(.MILLI.,.METRE.));
#13=(NAMED_UNIT(#11)PLANE_ANGLE_UNIT()SI_UNIT($,.RADIAN.));
#14=(NAMED_UNIT(#11)SOLID_ANGLE_UNIT()SI_UNIT($,.STERADIAN.));
#15=LENGTH_MEASURE_WITH_UNIT(LENGTH_MEASURE(25.4),#12);
#16= (CONVERSION_BASED_UNIT('INCH',#15)LENGTH_UNIT()NAMED_UNIT(#10));
#17=UNCERTAINTY_MEASURE_WITH_UNIT(LENGTH_MEASURE(1.0E-006),#16,'','');
#18=(GEOMETRIC_REPRESENTATION_CONTEXT(3)GLOBAL_UNCERTAINTY_ASSIGNED_CONTEXT((#17))GLOBAL_UNIT_ASSIGNED_CONTEXT((#16,#13,#14))REPRESENTATION_CONTEXT('NONE','WORKSPACE'));
#20=CARTESIAN_POINT('',(0.00000000000000,0.00000000000000,0.00000000000000));
#21=DIRECTION('',(0.00000000000000,0.00000000000000,1.00000000000000));
#22=DIRECTION('',(1.00000000000000,0.00000000000000,0.00000000000000));
#23=AXIS2_PLACEMENT_3D('',#20,#21,#22);
#24=CARTESIAN_POINT('',(3.49832262025574,9.23410055776538,-0.490977075954817));
#25=VERTEX_POINT('',#24);
#26=CARTESIAN_POINT('',(3.53832262025574,9.23410055776538,-0.490977075954817));
#27=VERTEX_POINT('',#26);
#28=CARTESIAN_POINT('',(3.53832262025574,9.23410055776538,-0.490977075954817));
#29=DIRECTION('',(1.00000000000000,0.00000000000000,0.00000000000000));
#30=VECTOR('',#29,1.00000000000000);
#31=LINE('',#28,#30);
#32=EDGE_CURVE('',#25,#27,#31,.T.);
#33=ORIENTED_EDGE('',*,*,#32,.T.);
#34=CARTESIAN_POINT('',(3.53832262025574,3.23410055776538,-0.490977075954813));
#35=VERTEX_POINT('',#34);
#36=CARTESIAN_POINT('',(3.53832262025574,3.23410055776538,-0.490977075954813));
#37=DIRECTION('',(7.40148683083438E-17,1.00000000000000,-6.56881956236551E-16));
#38=VECTOR('',#37,1.00000000000000);
#39=LINE('',#36,#38);
#40=EDGE_CURVE('',#35,#27,#39,.T.);
#41=ORIENTED_EDGE('',*,*,#40,.F.);
#42=CARTESIAN_POINT('',(3.49832262025574,3.23410055776538,-0.490977075954813));
#43=VERTEX_POINT('',#42);
#44=CARTESIAN_POINT('',(3.53832262025574,3.23410055776538,-0.490977075954813));
#45=DIRECTION('',(-1.00000000000000,0.00000000000000,0.00000000000000));
#46=VECTOR('',#45,1.00000000000000);
#47=LINE('',#44,#46);
#48=EDGE_CURVE('',#35,#43,#47,.T.);
#49=ORIENTED_EDGE('',*,*,#48,.T.);
#50=CARTESIAN_POINT('',(3.49832262025574,3.23410055776538,-0.490977075954813));
#51=DIRECTION('',(7.40148683083438E-17,1.00000000000000,-6.56881956236551E-16));
#52=VECTOR('',#51,1.00000000000000);
#53=LINE('',#50,#52);
#54=EDGE_CURVE('',#43,#25,#53,.T.);
#55=ORIENTED_EDGE('',*,*,#54,.T.);
#56=EDGE_LOOP('',(#33,#41,#49,#55));
#57=FACE_OUTER_BOUND('',#56,.T.);
#58=CARTESIAN_POINT('',(3.51832262025574,3.23410055776538,-0.490977075954813));
#59=DIRECTION('',(-0.00000000000000,-6.56881956236551E-16,-1.00000000000000));
#60=DIRECTION('',(-1.00000000000000,0.00000000000000,0.00000000000000));
#61=AXIS2_PLACEMENT_3D('',#58,#59,#60);
#62=PLANE('',#61);
#63=ADVANCED_FACE('',(#57),#62,.T.);
#64=CARTESIAN_POINT('',(3.53832262025574,9.23410055776538,0.469022924045183));
#65=VERTEX_POINT('',#64);
#66=CARTESIAN_POINT('',(3.53832262025574,9.23410055776538,-0.490977075954817));
#67=DIRECTION('',(0.00000000000000,4.62592926927149E-16,1.00000000000000));
#68=VECTOR('',#67,1.00000000000000);
#69=LINE('',#66,#68);
#70=EDGE_CURVE('',#27,#65,#69,.T.);
#71=ORIENTED_EDGE('',*,*,#70,.T.);
#72=CARTESIAN_POINT('',(3.53832262025574,3.23410055776538,0.469022924045187));
#73=VERTEX_POINT('',#72);
#74=CARTESIAN_POINT('',(3.53832262025574,3.23410055776538,0.469022924045187));
#75=DIRECTION('',(7.40148683083438E-17,1.00000000000000,-6.56881956236551E-16));
#76=VECTOR('',#75,1.00000000000000);
#77=LINE('',#74,#76);
#78=EDGE_CURVE('',#73,#65,#77,.T.);
#79=ORIENTED_EDGE('',*,*,#78,.F.);
#80=CARTESIAN_POINT('',(3.53832262025574,3.23410055776538,-0.490977075954813));
#81=DIRECTION('',(0.00000000000000,4.62592926927149E-16,1.00000000000000));
#82=VECTOR('',#81,1.00000000000000);
#83=LINE('',#80,#82);
#84=EDGE_CURVE('',#35,#73,#83,.T.);
#85=ORIENTED_EDGE('',*,*,#84,.F.);
#86=ORIENTED_EDGE('',*,*,#40,.T.);
#87=EDGE_LOOP('',(#71,#79,#85,#86));
#88=FACE_OUTER_BOUND('',#87,.T.);
#89=CARTESIAN_POINT('',(3.53832262025574,3.23410055776538,-0.0109770759548131));
#90=DIRECTION('',(1.00000000000000,-7.40148683083438E-17,3.42387545668842E-32));
#91=DIRECTION('',(-0.00000000000000,-4.62592926927149E-16,-1.00000000000000));
#92=AXIS2_PLACEMENT_3D('',#89,#90,#91);
#93=PLANE('',#92);
#94=ADVANCED_FACE('',(#88),#93,.T.);
#95=CARTESIAN_POINT('',(3.93832262025574,9.23410055776538,0.469022924045183));
#96=VERTEX_POINT('',#95);
#97=CARTESIAN_POINT('',(3.93832262025574,9.23410055776538,0.469022924045183));
#98=DIRECTION('',(1.00000000000000,0.00000000000000,0.00000000000000));
#99=VECTOR('',#98,1.00000000000000);
#100=LINE('',#97,#99);
#101=EDGE_CURVE('',#65,#96,#100,.T.);
#102=ORIENTED_EDGE('',*,*,#101,.T.);
#103=CARTESIAN_POINT('',(3.93832262025574,3.23410055776538,0.469022924045187));
#104=VERTEX_POINT('',#103);
#105=CARTESIAN_POINT('',(3.93832262025574,3.23410055776538,0.469022924045187));
#106=DIRECTION('',(7.40148683083438E-17,1.00000000000000,-6.56881956236551E-16));
#107=VECTOR('',#106,1.00000000000000);
#108=LINE('',#105,#107);
#109=EDGE_CURVE('',#104,#96,#108,.T.);
#110=ORIENTED_EDGE('',*,*,#109,.F.);
#111=CARTESIAN_POINT('',(3.93832262025574,3.23410055776538,0.469022924045187));
#112=DIRECTION('',(-1.00000000000000,0.00000000000000,0.00000000000000));
#113=VECTOR('',#112,1.00000000000000);
#114=LINE('',#111,#113);
#115=EDGE_CURVE('',#104,#73,#114,.T.);
#116=ORIENTED_EDGE('',*,*,#115,.T.);
#117=ORIENTED_EDGE('',*,*,#78,.T.);
#118=EDGE_LOOP('',(#102,#110,#116,#117));
#119=FACE_OUTER_BOUND('',#118,.T.);
#120=CARTESIAN_POINT('',(3.73832262025574,3.23410055776538,0.469022924045187));
#121=DIRECTION('',(-0.00000000000000,-6.56881956236551E-16,-1.00000000000000));
#122=DIRECTION('',(-1.00000000000000,0.00000000000000,0.00000000000000));
#123=AXIS2_PLACEMENT_3D('',#120,#121,#122);
#124=PLANE('',#123);
#125=ADVANCED_FACE('',(#119),#124,.T.);
#126=CARTESIAN_POINT('',(3.93832262025574,9.23410055776538,-0.490977075954817));
#127=VERTEX_POINT('',#126);
#128=CARTESIAN_POINT('',(3.93832262025574,9.23410055776538,-0.490977075954817));
#129=DIRECTION('',(-0.00000000000000,-4.62592926927149E-16,-1.00000000000000));
#130=VECTOR('',#129,1.00000000000000);
#131=LINE('',#128,#130);
#132=EDGE_CURVE('',#96,#127,#131,.T.);
#133=ORIENTED_EDGE('',*,*,#132,.T.);
#134=CARTESIAN_POINT('',(3.93832262025574,3.23410055776538,-0.490977075954813));
#135=VERTEX_POINT('',#134);
#136=CARTESIAN_POINT('',(3.93832262025574,3.23410055776538,-0.490977075954813));
#137=DIRECTION('',(7.40148683083438E-17,1.00000000000000,-6.56881956236551E-16));
#138=VECTOR('',#137,1.00000000000000);
#139=LINE('',#136,#138);
#140=EDGE_CURVE('',#135,#127,#139,.T.);
#141=ORIENTED_EDGE('',*,*,#140,.F.);
#142=CARTESIAN_POINT('',(3.93832262025574,3.23410055776538,-0.490977075954813));
#143=DIRECTION('',(0.00000000000000,4.62592926927149E-16,1.00000000000000));
#144=VECTOR('',#143,1.00000000000000);
#145=LINE('',#142,#144);
#146=EDGE_CURVE('',#135,#104,#145,.T.);
#147=ORIENTED_EDGE('',*,*,#146,.T.);
#148=ORIENTED_EDGE('',*,*,#109,.T.);
#149=EDGE_LOOP('',(#133,#141,#147,#148));
#150=FACE_OUTER_BOUND('',#149,.T.);
#151=CARTESIAN_POINT('',(3.93832262025574,3.23410055776538,-0.0109770759548131));
#152=DIRECTION('',(-1.00000000000000,7.40148683083438E-17,-3.42387545668842E-32));
#153=DIRECTION('',(0.00000000000000,4.62592926927149E-16,1.00000000000000));
#154=AXIS2_PLACEMENT_3D('',#151,#152,#153);
#155=PLANE('',#154);
#156=ADVANCED_FACE('',(#150),#155,.T.);
#157=CARTESIAN_POINT('',(3.97832262025574,9.23410055776538,-0.490977075954817));
#158=VERTEX_POINT('',#157);
#159=CARTESIAN_POINT('',(3.97832262025574,9.23410055776538,-0.490977075954817));
#160=DIRECTION('',(1.00000000000000,0.00000000000000,0.00000000000000));
#161=VECTOR('',#160,1.00000000000000);
#162=LINE('',#159,#161);
#163=EDGE_CURVE('',#127,#158,#162,.T.);
#164=ORIENTED_EDGE('',*,*,#163,.T.);
#165=CARTESIAN_POINT('',(3.97832262025574,3.23410055776538,-0.490977075954813));
#166=VERTEX_POINT('',#165);
#167=CARTESIAN_POINT('',(3.97832262025574,3.23410055776538,-0.490977075954813));
#168=DIRECTION('',(7.40148683083438E-17,1.00000000000000,-6.56881956236551E-16));
#169=VECTOR('',#168,1.00000000000000);
#170=LINE('',#167,#169);
#171=EDGE_CURVE('',#166,#158,#170,.T.);
#172=ORIENTED_EDGE('',*,*,#171,.F.);
#173=CARTESIAN_POINT('',(3.97832262025574,3.23410055776538,-0.490977075954813));
#174=DIRECTION('',(-1.00000000000000,0.00000000000000,0.00000000000000));
#175=VECTOR('',#174,1.00000000000000);
#176=LINE('',#173,#175);
#177=EDGE_CURVE('',#166,#135,#176,.T.);
#178=ORIENTED_EDGE('',*,*,#177,.T.);
#179=ORIENTED_EDGE('',*,*,#140,.T.);
#180=EDGE_LOOP('',(#164,#172,#178,#179));
#181=FACE_OUTER_BOUND('',#180,.T.);
#182=CARTESIAN_POINT('',(3.95832262025574,3.23410055776538,-0.490977075954813));
#183=DIRECTION('',(-0.00000000000000,-6.56881956236551E-16,-1.00000000000000));
#184=DIRECTION('',(-1.00000000000000,0.00000000000000,0.00000000000000));
#185=AXIS2_PLACEMENT_3D('',#182,#183,#184);
#186=PLANE('',#185);
#187=ADVANCED_FACE('',(#181),#186,.T.);
#188=CARTESIAN_POINT('',(3.97832262025574,9.23410055776538,0.489022924045183));
#189=VERTEX_POINT('',#188);
#190=CARTESIAN_POINT('',(3.97832262025574,9.23410055776538,-0.490977075954817));
#191=DIRECTION('',(0.00000000000000,4.53152254949043E-16,1.00000000000000));
#192=VECTOR('',#191,1.00000000000000);
#193=LINE('',#190,#192);
#194=EDGE_CURVE('',#158,#189,#193,.T.);
#195=ORIENTED_EDGE('',*,*,#194,.T.);
#196=CARTESIAN_POINT('',(3.97832262025574,3.23410055776538,0.489022924045187));
#197=VERTEX_POINT('',#196);
#198=CARTESIAN_POINT('',(3.97832262025574,3.23410055776538,0.489022924045187));
#199=DIRECTION('',(7.40148683083438E-17,1.00000000000000,-6.56881956236551E-16));
#200=VECTOR('',#199,1.00000000000000);
#201=LINE('',#198,#200);
#202=EDGE_CURVE('',#197,#189,#201,.T.);
#203=ORIENTED_EDGE('',*,*,#202,.F.);
#204=CARTESIAN_POINT('',(3.97832262025574,3.23410055776538,-0.490977075954813));
#205=DIRECTION('',(0.00000000000000,4.53152254949043E-16,1.00000000000000));
#206=VECTOR('',#205,1.00000000000000);
#207=LINE('',#204,#206);
#208=EDGE_CURVE('',#166,#197,#207,.T.);
#209=ORIENTED_EDGE('',*,*,#208,.F.);
#210=ORIENTED_EDGE('',*,*,#171,.T.);
#211=EDGE_LOOP('',(#195,#203,#209,#210));
#212=FACE_OUTER_BOUND('',#211,.T.);
#213=CARTESIAN_POINT('',(3.97832262025574,3.23410055776538,-0.000977075954813111));
#214=DIRECTION('',(1.00000000000000,-7.40148683083438E-17,3.35400044736825E-32));
#215=DIRECTION('',(-0.00000000000000,-4.53152254949043E-16,-1.00000000000000));
#216=AXIS2_PLACEMENT_3D('',#213,#214,#215);
#217=PLANE('',#216);
#218=ADVANCED_FACE('',(#212),#217,.T.);
#219=CARTESIAN_POINT('',(3.95832262025574,9.23410055776538,0.509022924045183));
#220=VERTEX_POINT('',#219);
#221=CARTESIAN_POINT('',(3.95832262025574,9.23410055776538,0.489022924045183));
#222=DIRECTION('',(0.00000000000000,-1.00000000000000,6.12323399573677E-17));
#223=DIRECTION('',(1.00000000000000,0.00000000000000,0.00000000000000));
#224=AXIS2_PLACEMENT_3D('',#221,#222,#223);
#225=CIRCLE('',#224,0.0200000000000000);
#226=EDGE_CURVE('',#189,#220,#225,.T.);
#227=ORIENTED_EDGE('',*,*,#226,.T.);
#228=CARTESIAN_POINT('',(3.95832262025574,3.23410055776538,0.509022924045187));
#229=VERTEX_POINT('',#228);
#230=CARTESIAN_POINT('',(3.95832262025574,3.23410055776538,0.509022924045187));
#231=DIRECTION('',(7.40148683083438E-17,1.00000000000000,-6.56881956236551E-16));
#232=VECTOR('',#231,1.00000000000000);
#233=LINE('',#230,#232);
#234=EDGE_CURVE('',#229,#220,#233,.T.);
#235=ORIENTED_EDGE('',*,*,#234,.F.);
#236=CARTESIAN_POINT('',(3.95832262025574,3.23410055776538,0.489022924045187));
#237=DIRECTION('',(0.00000000000000,-1.00000000000000,6.12323399573677E-17));
#238=DIRECTION('',(1.00000000000000,0.00000000000000,0.00000000000000));
#239=AXIS2_PLACEMENT_3D('',#236,#237,#238);
#240=CIRCLE('',#239,0.0200000000000000);
#241=EDGE_CURVE('',#197,#229,#240,.T.);
#242=ORIENTED_EDGE('',*,*,#241,.F.);
#243=ORIENTED_EDGE('',*,*,#202,.T.);
#244=EDGE_LOOP('',(#227,#235,#242,#243));
#245=FACE_OUTER_BOUND('',#244,.T.);
#246=CARTESIAN_POINT('',(3.95832262025574,3.23410055776538,0.489022924045187));
#247=DIRECTION('',(7.40148683083438E-17,1.00000000000000,-6.56881956236551E-16));
#248=DIRECTION('',(-0.707106781186547,0.00000000000000,-0.707106781186547));
#249=AXIS2_PLACEMENT_3D('',#246,#247,#248);
#250=CYLINDRICAL_SURFACE('',#249,0.0200000000000000);
#251=ADVANCED_FACE('',(#245),#250,.T.);
#252=CARTESIAN_POINT('',(3.51832262025574,9.23410055776538,0.509022924045183));
#253=VERTEX_POINT('',#252);
#254=CARTESIAN_POINT('',(3.95832262025574,9.23410055776538,0.509022924045183));
#255=DIRECTION('',(-1.00000000000000,0.00000000000000,0.00000000000000));
#256=VECTOR('',#255,1.00000000000000);
#257=LINE('',#254,#256);
#258=EDGE_CURVE('',#220,#253,#257,.T.);
#259=ORIENTED_EDGE('',*,*,#258,.T.);
#260=CARTESIAN_POINT('',(3.51832262025574,3.23410055776538,0.509022924045187));
#261=VERTEX_POINT('',#260);
#262=CARTESIAN_POINT('',(3.51832262025574,3.23410055776538,0.509022924045187));
#263=DIRECTION('',(7.40148683083438E-17,1.00000000000000,-6.56881956236551E-16));
#264=VECTOR('',#263,1.00000000000000);
#265=LINE('',#262,#264);
#266=EDGE_CURVE('',#261,#253,#265,.T.);
#267=ORIENTED_EDGE('',*,*,#266,.F.);
#268=CARTESIAN_POINT('',(3.95832262025574,3.23410055776538,0.509022924045187));
#269=DIRECTION('',(-1.00000000000000,0.00000000000000,0.00000000000000));
#270=VECTOR('',#269,1.00000000000000);
#271=LINE('',#268,#270);
#272=EDGE_CURVE('',#229,#261,#271,.T.);
#273=ORIENTED_EDGE('',*,*,#272,.F.);
#274=ORIENTED_EDGE('',*,*,#234,.T.);
#275=EDGE_LOOP('',(#259,#267,#273,#274));
#276=FACE_OUTER_BOUND('',#275,.T.);
#277=CARTESIAN_POINT('',(3.73832262025574,3.23410055776538,0.509022924045187));
#278=DIRECTION('',(0.00000000000000,6.56881956236551E-16,1.00000000000000));
#279=DIRECTION('',(1.00000000000000,-0.00000000000000,-0.00000000000000));
#280=AXIS2_PLACEMENT_3D('',#277,#278,#279);
#281=PLANE('',#280);
#282=ADVANCED_FACE('',(#276),#281,.T.);
#283=CARTESIAN_POINT('',(3.49832262025574,9.23410055776538,0.489022924045183));
#284=VERTEX_POINT('',#283);
#285=CARTESIAN_POINT('',(3.51832262025574,9.23410055776538,0.489022924045183));
#286=DIRECTION('',(0.00000000000000,-1.00000000000000,6.12323399573677E-17));
#287=DIRECTION('',(1.00000000000000,0.00000000000000,0.00000000000000));
#288=AXIS2_PLACEMENT_3D('',#285,#286,#287);
#289=CIRCLE('',#288,0.0200000000000000);
#290=EDGE_CURVE('',#253,#284,#289,.T.);
#291=ORIENTED_EDGE('',*,*,#290,.T.);
#292=CARTESIAN_POINT('',(3.49832262025574,3.23410055776538,0.489022924045187));
#293=VERTEX_POINT('',#292);
#294=CARTESIAN_POINT('',(3.49832262025574,3.23410055776538,0.489022924045187));
#295=DIRECTION('',(7.40148683083438E-17,1.00000000000000,-6.56881956236551E-16));
#296=VECTOR('',#295,1.00000000000000);
#297=LINE('',#294,#296);
#298=EDGE_CURVE('',#293,#284,#297,.T.);
#299=ORIENTED_EDGE('',*,*,#298,.F.);
#300=CARTESIAN_POINT('',(3.51832262025574,3.23410055776538,0.489022924045187));
#301=DIRECTION('',(0.00000000000000,-1.00000000000000,6.12323399573677E-17));
#302=DIRECTION('',(1.00000000000000,0.00000000000000,0.00000000000000));
#303=AXIS2_PLACEMENT_3D('',#300,#301,#302);
#304=CIRCLE('',#303,0.0200000000000000);
#305=EDGE_CURVE('',#261,#293,#304,.T.);
#306=ORIENTED_EDGE('',*,*,#305,.F.);
#307=ORIENTED_EDGE('',*,*,#266,.T.);
#308=EDGE_LOOP('',(#291,#299,#306,#307));
#309=FACE_OUTER_BOUND('',#308,.T.);
#310=CARTESIAN_POINT('',(3.51832262025574,3.23410055776538,0.489022924045187));
#311=DIRECTION('',(7.40148683083438E-17,1.00000000000000,-6.56881956236551E-16));
#312=DIRECTION('',(1.00000000000000,-7.40148683083438E-17,4.86190314849756E-32));
#313=AXIS2_PLACEMENT_3D('',#310,#311,#312);
#314=CYLINDRICAL_SURFACE('',#313,0.0200000000000000);
#315=ADVANCED_FACE('',(#309),#314,.T.);
#316=CARTESIAN_POINT('',(3.49832262025574,9.23410055776538,-0.490977075954817));
#317=DIRECTION('',(-0.00000000000000,-4.53152254949043E-16,-1.00000000000000));
#318=VECTOR('',#317,1.00000000000000);
#319=LINE('',#316,#318);
#320=EDGE_CURVE('',#284,#25,#319,.T.);
#321=ORIENTED_EDGE('',*,*,#320,.T.);
#322=ORIENTED_EDGE('',*,*,#54,.F.);
#323=CARTESIAN_POINT('',(3.49832262025574,3.23410055776538,-0.490977075954813));
#324=DIRECTION('',(0.00000000000000,4.53152254949043E-16,1.00000000000000));
#325=VECTOR('',#324,1.00000000000000);
#326=LINE('',#323,#325);
#327=EDGE_CURVE('',#43,#293,#326,.T.);
#328=ORIENTED_EDGE('',*,*,#327,.T.);
#329=ORIENTED_EDGE('',*,*,#298,.T.);
#330=EDGE_LOOP('',(#321,#322,#328,#329));
#331=FACE_OUTER_BOUND('',#330,.T.);
#332=CARTESIAN_POINT('',(3.49832262025574,3.23410055776538,-0.000977075954813111));
#333=DIRECTION('',(-1.00000000000000,7.40148683083438E-17,-3.35400044736825E-32));
#334=DIRECTION('',(0.00000000000000,4.53152254949043E-16,1.00000000000000));
#335=AXIS2_PLACEMENT_3D('',#332,#333,#334);
#336=PLANE('',#335);
#337=ADVANCED_FACE('',(#331),#336,.T.);
#338=ORIENTED_EDGE('',*,*,#32,.F.);
#339=ORIENTED_EDGE('',*,*,#320,.F.);
#340=ORIENTED_EDGE('',*,*,#290,.F.);
#341=ORIENTED_EDGE('',*,*,#258,.F.);
#342=ORIENTED_EDGE('',*,*,#226,.F.);
#343=ORIENTED_EDGE('',*,*,#194,.F.);
#344=ORIENTED_EDGE('',*,*,#163,.F.);
#345=ORIENTED_EDGE('',*,*,#132,.F.);
#346=ORIENTED_EDGE('',*,*,#101,.F.);
#347=ORIENTED_EDGE('',*,*,#70,.F.);
#348=EDGE_LOOP('',(#338,#339,#340,#341,#342,#343,#344,#345,#346,#347));
#349=FACE_OUTER_BOUND('',#348,.T.);
#350=CARTESIAN_POINT('',(3.49832262025574,9.23410055776538,-0.184898575954817));
#351=DIRECTION('',(4.08561563077008E-17,1.00000000000000,-6.58962816663458E-16));
#352=DIRECTION('',(-1.00000000000000,4.08561563077008E-17,-1.47022153701747E-64));
#353=AXIS2_PLACEMENT_3D('',#350,#351,#352);
#354=PLANE('',#353);
#355=ADVANCED_FACE('',(#349),#354,.T.);
#356=ORIENTED_EDGE('',*,*,#327,.F.);
#357=ORIENTED_EDGE('',*,*,#48,.F.);
#358=ORIENTED_EDGE('',*,*,#84,.T.);
#359=ORIENTED_EDGE('',*,*,#115,.F.);
#360=ORIENTED_EDGE('',*,*,#146,.F.);
#361=ORIENTED_EDGE('',*,*,#177,.F.);
#362=ORIENTED_EDGE('',*,*,#208,.T.);
#363=ORIENTED_EDGE('',*,*,#241,.T.);
#364=ORIENTED_EDGE('',*,*,#272,.T.);
#365=ORIENTED_EDGE('',*,*,#305,.T.);
#366=EDGE_LOOP('',(#356,#357,#358,#359,#360,#361,#362,#363,#364,#365));
#367=FACE_OUTER_BOUND('',#366,.T.);
#368=CARTESIAN_POINT('',(3.49832262025574,3.23410055776538,-0.184898575954813));
#369=DIRECTION('',(4.08561563077008E-17,1.00000000000000,-6.58962816663458E-16));
#370=DIRECTION('',(-1.00000000000000,4.08561563077008E-17,0.00000000000000));
#371=AXIS2_PLACEMENT_3D('',#368,#369,#370);
#372=PLANE('',#371);
#373=ADVANCED_FACE('',(#367),#372,.F.);
#374=CLOSED_SHELL('',(#63,#94,#125,#156,#187,#218,#251,#282,#315,#337,#355,#373));
#375=MANIFOLD_SOLID_BREP('',#374);
#376=COLOUR_RGB('',1.00000000000000,0.00000000000000,0.00000000000000);
#377=FILL_AREA_STYLE_COLOUR('',#376);
#378=FILL_AREA_STYLE('',(#377));
#379=SURFACE_STYLE_FILL_AREA(#378);
#380=SURFACE_SIDE_STYLE('',(#379));
#381=SURFACE_STYLE_USAGE(.BOTH.,#380);
#382=PRESENTATION_STYLE_ASSIGNMENT((#381));
#383=STYLED_ITEM('',(#382),#375);
#384=ADVANCED_BREP_SHAPE_REPRESENTATION('',(#375,#23),#18);
#385=PRODUCT('', '', ' ',(#2));
#386=PRODUCT_DEFINITION_FORMATION_WITH_SPECIFIED_SOURCE (' ', ' ', #385, .NOT_KNOWN.) ;
#387=PRODUCT_CATEGORY('part','') ;
#388=PRODUCT_RELATED_PRODUCT_CATEGORY('detail', ' ', (#385)) ;
#389=PRODUCT_CATEGORY_RELATIONSHIP(' ', ' ', #387, #388);
#390=PRODUCT_DEFINITION('', '', #386, #1);
#391=PRODUCT_DEFINITION_SHAPE('NONE', 'NONE', #390);
#392=SHAPE_DEFINITION_REPRESENTATION(#391, #384);
#393=PRESENTATION_LAYER_ASSIGNMENT('1','Unnamed [1]',(#375));
#394=MECHANICAL_DESIGN_GEOMETRIC_PRESENTATION_REPRESENTATION('',(#383), #18);
ENDSEC;
END-ISO-10303-21;
