ISO-10303-21;
HEADER;
FILE_DESCRIPTION((''),'2;1');
FILE_NAME('C:/Program Files/Kubotek/KeyCreatorPro.2021.SP0/STEP/SG1397.STP', '2021-03-03T16:09:27',(''), (''), 'KCM Version 2.0.6974.6974', 'KeyCreator Pro', '');
FILE_SCHEMA(('AUTOMOTIVE_DESIGN'));
ENDSEC;
DATA;
#1=PRODUCT_DEFINITION_CONTEXT('',#4,'design');
#2=PRODUCT_CONTEXT('',#4,'mechanical');
#3=APPLICATION_PROTOCOL_DEFINITION('International Standard','automotive_design',2001,#4);
#4=APPLICATION_CONTEXT('automotive design');
#10=DIMENSIONAL_EXPONENTS(1.0,0.0,0.0,0.0,0.0,0.0,0.0);
#11=DIMENSIONAL_EXPONENTS(0.0,0.0,0.0,0.0,0.0,0.0,0.0);
#12=(NAMED_UNIT(#10)LENGTH_UNIT()SI_UNIT(.MILLI.,.METRE.));
#13=(NAMED_UNIT(#11)PLANE_ANGLE_UNIT()SI_UNIT($,.RADIAN.));
#14=(NAMED_UNIT(#11)SOLID_ANGLE_UNIT()SI_UNIT($,.STERADIAN.));
#15=LENGTH_MEASURE_WITH_UNIT(LENGTH_MEASURE(25.4),#12);
#16= (CONVERSION_BASED_UNIT('INCH',#15)LENGTH_UNIT()NAMED_UNIT(#10));
#17=UNCERTAINTY_MEASURE_WITH_UNIT(LENGTH_MEASURE(1.0E-006),#16,'','');
#18=(GEOMETRIC_REPRESENTATION_CONTEXT(3)GLOBAL_UNCERTAINTY_ASSIGNED_CONTEXT((#17))GLOBAL_UNIT_ASSIGNED_CONTEXT((#16,#13,#14))REPRESENTATION_CONTEXT('NONE','WORKSPACE'));
#20=CARTESIAN_POINT('',(0.00000000000000,0.00000000000000,0.00000000000000));
#21=DIRECTION('',(0.00000000000000,0.00000000000000,1.00000000000000));
#22=DIRECTION('',(1.00000000000000,0.00000000000000,0.00000000000000));
#23=AXIS2_PLACEMENT_3D('',#20,#21,#22);
#24=CARTESIAN_POINT('',(0.00200000000000000,3.00000000000000,0.255000000000000));
#25=VERTEX_POINT('',#24);
#26=CARTESIAN_POINT('',(0.00200000000000000,-3.00000000000000,0.255000000000000));
#27=VERTEX_POINT('',#26);
#28=CARTESIAN_POINT('',(0.00200000000000000,1.56142466891288E-17,0.255000000000000));
#29=DIRECTION('',(0.00000000000000,-1.00000000000000,5.55111512312578E-17));
#30=VECTOR('',#29,1.00000000000000);
#31=LINE('',#28,#30);
#32=EDGE_CURVE('',#25,#27,#31,.T.);
#33=ORIENTED_EDGE('',*,*,#32,.F.);
#34=CARTESIAN_POINT('',(-0.00200000000000000,3.00000000000000,0.255000000000000));
#35=VERTEX_POINT('',#34);
#36=CARTESIAN_POINT('',(0.00000000000000,3.00000000000000,-1.66533453693773E-16));
#37=DIRECTION('',(0.00000000000000,1.00000000000000,-6.12323399573677E-17));
#38=DIRECTION('',(1.00000000000000,0.00000000000000,0.00000000000000));
#39=AXIS2_PLACEMENT_3D('',#36,#37,#38);
#40=CIRCLE('',#39,0.255000000000000);
#41=EDGE_CURVE('',#25,#35,#40,.T.);
#42=ORIENTED_EDGE('',*,*,#41,.T.);
#43=CARTESIAN_POINT('',(-0.00200000000000000,-3.00000000000000,0.255000000000000));
#44=VERTEX_POINT('',#43);
#45=CARTESIAN_POINT('',(-0.00200000000000000,1.56142466891288E-17,0.255000000000000));
#46=DIRECTION('',(0.00000000000000,1.00000000000000,-5.55111512312578E-17));
#47=VECTOR('',#46,1.00000000000000);
#48=LINE('',#45,#47);
#49=EDGE_CURVE('',#44,#35,#48,.T.);
#50=ORIENTED_EDGE('',*,*,#49,.F.);
#51=CARTESIAN_POINT('',(0.00000000000000,-3.00000000000000,1.66533453693773E-16));
#52=DIRECTION('',(0.00000000000000,-1.00000000000000,6.12323399573677E-17));
#53=DIRECTION('',(1.00000000000000,0.00000000000000,0.00000000000000));
#54=AXIS2_PLACEMENT_3D('',#51,#52,#53);
#55=CIRCLE('',#54,0.255000000000000);
#56=EDGE_CURVE('',#44,#27,#55,.T.);
#57=ORIENTED_EDGE('',*,*,#56,.T.);
#58=EDGE_LOOP('',(#33,#42,#50,#57));
#59=FACE_OUTER_BOUND('',#58,.T.);
#60=CARTESIAN_POINT('',(0.00000000000000,0.00000000000000,0.00000000000000));
#61=DIRECTION('',(0.00000000000000,1.00000000000000,-5.55111512312578E-17));
#62=DIRECTION('',(0.00000000000000,0.00000000000000,1.00000000000000));
#63=AXIS2_PLACEMENT_3D('',#60,#61,#62);
#64=CYLINDRICAL_SURFACE('',#63,0.255000000000000);
#65=ADVANCED_FACE('',(#59),#64,.F.);
#66=CARTESIAN_POINT('',(-0.00200000000000000,-3.00000000000000,0.317000000000000));
#67=VERTEX_POINT('',#66);
#68=CARTESIAN_POINT('',(-0.00200000000000000,3.00000000000000,0.317000000000000));
#69=VERTEX_POINT('',#68);
#70=CARTESIAN_POINT('',(-0.00200000000000000,1.94106517664855E-17,0.317000000000000));
#71=DIRECTION('',(0.00000000000000,1.00000000000000,-5.55111512312578E-17));
#72=VECTOR('',#71,1.00000000000000);
#73=LINE('',#70,#72);
#74=EDGE_CURVE('',#67,#69,#73,.T.);
#75=ORIENTED_EDGE('',*,*,#74,.F.);
#76=CARTESIAN_POINT('',(-0.00200000000000000,-3.00000000000000,0.255000000000000));
#77=DIRECTION('',(-0.00000000000000,-6.12323399573677E-17,-1.00000000000000));
#78=VECTOR('',#77,1.00000000000000);
#79=LINE('',#76,#78);
#80=EDGE_CURVE('',#67,#44,#79,.T.);
#81=ORIENTED_EDGE('',*,*,#80,.T.);
#82=ORIENTED_EDGE('',*,*,#49,.T.);
#83=CARTESIAN_POINT('',(-0.00200000000000000,3.00000000000000,0.255000000000000));
#84=DIRECTION('',(0.00000000000000,6.12323399573677E-17,1.00000000000000));
#85=VECTOR('',#84,1.00000000000000);
#86=LINE('',#83,#85);
#87=EDGE_CURVE('',#35,#69,#86,.T.);
#88=ORIENTED_EDGE('',*,*,#87,.T.);
#89=EDGE_LOOP('',(#75,#81,#82,#88));
#90=FACE_OUTER_BOUND('',#89,.T.);
#91=CARTESIAN_POINT('',(-0.00200000000000000,1.75124492278071E-17,0.286000000000000));
#92=DIRECTION('',(1.00000000000000,-0.00000000000000,0.00000000000000));
#93=DIRECTION('',(-0.00000000000000,-6.12323399573677E-17,-1.00000000000000));
#94=AXIS2_PLACEMENT_3D('',#91,#92,#93);
#95=PLANE('',#94);
#96=ADVANCED_FACE('',(#90),#95,.T.);
#97=CARTESIAN_POINT('',(0.00200000000000000,-3.00000000000000,0.317000000000000));
#98=VERTEX_POINT('',#97);
#99=CARTESIAN_POINT('',(0.00200000000000000,3.00000000000000,0.317000000000000));
#100=VERTEX_POINT('',#99);
#101=CARTESIAN_POINT('',(0.00200000000000000,1.94106517664855E-17,0.317000000000000));
#102=DIRECTION('',(0.00000000000000,1.00000000000000,-5.55111512312578E-17));
#103=VECTOR('',#102,1.00000000000000);
#104=LINE('',#101,#103);
#105=EDGE_CURVE('',#98,#100,#104,.T.);
#106=ORIENTED_EDGE('',*,*,#105,.F.);
#107=CARTESIAN_POINT('',(0.00000000000000,-3.00000000000000,1.66533453693773E-16));
#108=DIRECTION('',(0.00000000000000,1.00000000000000,-6.12323399573677E-17));
#109=DIRECTION('',(1.00000000000000,0.00000000000000,0.00000000000000));
#110=AXIS2_PLACEMENT_3D('',#107,#108,#109);
#111=CIRCLE('',#110,0.317000000000000);
#112=EDGE_CURVE('',#98,#67,#111,.T.);
#113=ORIENTED_EDGE('',*,*,#112,.T.);
#114=ORIENTED_EDGE('',*,*,#74,.T.);
#115=CARTESIAN_POINT('',(0.00000000000000,3.00000000000000,-1.66533453693773E-16));
#116=DIRECTION('',(0.00000000000000,-1.00000000000000,6.12323399573677E-17));
#117=DIRECTION('',(1.00000000000000,0.00000000000000,0.00000000000000));
#118=AXIS2_PLACEMENT_3D('',#115,#116,#117);
#119=CIRCLE('',#118,0.317000000000000);
#120=EDGE_CURVE('',#69,#100,#119,.T.);
#121=ORIENTED_EDGE('',*,*,#120,.T.);
#122=EDGE_LOOP('',(#106,#113,#114,#121));
#123=FACE_OUTER_BOUND('',#122,.T.);
#124=CARTESIAN_POINT('',(0.00000000000000,0.00000000000000,0.00000000000000));
#125=DIRECTION('',(0.00000000000000,1.00000000000000,-5.55111512312578E-17));
#126=DIRECTION('',(0.00000000000000,0.00000000000000,1.00000000000000));
#127=AXIS2_PLACEMENT_3D('',#124,#125,#126);
#128=CYLINDRICAL_SURFACE('',#127,0.317000000000000);
#129=ADVANCED_FACE('',(#123),#128,.T.);
#130=ORIENTED_EDGE('',*,*,#105,.T.);
#131=CARTESIAN_POINT('',(0.00200000000000000,3.00000000000000,0.255000000000000));
#132=DIRECTION('',(-0.00000000000000,-6.12323399573677E-17,-1.00000000000000));
#133=VECTOR('',#132,1.00000000000000);
#134=LINE('',#131,#133);
#135=EDGE_CURVE('',#100,#25,#134,.T.);
#136=ORIENTED_EDGE('',*,*,#135,.T.);
#137=ORIENTED_EDGE('',*,*,#32,.T.);
#138=CARTESIAN_POINT('',(0.00200000000000000,-3.00000000000000,0.255000000000000));
#139=DIRECTION('',(0.00000000000000,6.12323399573677E-17,1.00000000000000));
#140=VECTOR('',#139,1.00000000000000);
#141=LINE('',#138,#140);
#142=EDGE_CURVE('',#27,#98,#141,.T.);
#143=ORIENTED_EDGE('',*,*,#142,.T.);
#144=EDGE_LOOP('',(#130,#136,#137,#143));
#145=FACE_OUTER_BOUND('',#144,.T.);
#146=CARTESIAN_POINT('',(0.00200000000000000,1.75124492278071E-17,0.286000000000000));
#147=DIRECTION('',(-1.00000000000000,0.00000000000000,0.00000000000000));
#148=DIRECTION('',(0.00000000000000,6.12323399573677E-17,1.00000000000000));
#149=AXIS2_PLACEMENT_3D('',#146,#147,#148);
#150=PLANE('',#149);
#151=ADVANCED_FACE('',(#145),#150,.T.);
#152=ORIENTED_EDGE('',*,*,#41,.F.);
#153=ORIENTED_EDGE('',*,*,#135,.F.);
#154=ORIENTED_EDGE('',*,*,#120,.F.);
#155=ORIENTED_EDGE('',*,*,#87,.F.);
#156=EDGE_LOOP('',(#152,#153,#154,#155));
#157=FACE_OUTER_BOUND('',#156,.T.);
#158=CARTESIAN_POINT('',(0.00200000000000000,3.00000000000000,0.274364150000000));
#159=DIRECTION('',(0.00000000000000,1.00000000000000,-6.12323399573677E-17));
#160=DIRECTION('',(-1.00000000000000,0.00000000000000,0.00000000000000));
#161=AXIS2_PLACEMENT_3D('',#158,#159,#160);
#162=PLANE('',#161);
#163=ADVANCED_FACE('',(#157),#162,.T.);
#164=ORIENTED_EDGE('',*,*,#112,.F.);
#165=ORIENTED_EDGE('',*,*,#142,.F.);
#166=ORIENTED_EDGE('',*,*,#56,.F.);
#167=ORIENTED_EDGE('',*,*,#80,.F.);
#168=EDGE_LOOP('',(#164,#165,#166,#167));
#169=FACE_OUTER_BOUND('',#168,.T.);
#170=CARTESIAN_POINT('',(0.00200000000000000,-3.00000000000000,0.274364150000000));
#171=DIRECTION('',(0.00000000000000,1.00000000000000,-6.12323399573677E-17));
#172=DIRECTION('',(-1.00000000000000,0.00000000000000,0.00000000000000));
#173=AXIS2_PLACEMENT_3D('',#170,#171,#172);
#174=PLANE('',#173);
#175=ADVANCED_FACE('',(#169),#174,.F.);
#176=CLOSED_SHELL('',(#65,#96,#129,#151,#163,#175));
#177=MANIFOLD_SOLID_BREP('',#176);
#178=COLOUR_RGB('',1.00000000000000,0.00000000000000,0.00000000000000);
#179=FILL_AREA_STYLE_COLOUR('',#178);
#180=FILL_AREA_STYLE('',(#179));
#181=SURFACE_STYLE_FILL_AREA(#180);
#182=SURFACE_SIDE_STYLE('',(#181));
#183=SURFACE_STYLE_USAGE(.BOTH.,#182);
#184=PRESENTATION_STYLE_ASSIGNMENT((#183));
#185=STYLED_ITEM('',(#184),#177);
#186=ADVANCED_BREP_SHAPE_REPRESENTATION('',(#177,#23),#18);
#187=PRODUCT('', '', ' ',(#2));
#188=PRODUCT_DEFINITION_FORMATION_WITH_SPECIFIED_SOURCE (' ', ' ', #187, .NOT_KNOWN.) ;
#189=PRODUCT_CATEGORY('part','') ;
#190=PRODUCT_RELATED_PRODUCT_CATEGORY('detail', ' ', (#187)) ;
#191=PRODUCT_CATEGORY_RELATIONSHIP(' ', ' ', #189, #190);
#192=PRODUCT_DEFINITION('', '', #188, #1);
#193=PRODUCT_DEFINITION_SHAPE('NONE', 'NONE', #192);
#194=SHAPE_DEFINITION_REPRESENTATION(#193, #186);
#195=PRESENTATION_LAYER_ASSIGNMENT('1','Unnamed [1]',(#177));
#196=MECHANICAL_DESIGN_GEOMETRIC_PRESENTATION_REPRESENTATION('',(#185), #18);
ENDSEC;
END-ISO-10303-21;
