ISO-10303-21;
HEADER;
FILE_DESCRIPTION((''),'2;1');
FILE_NAME('C:/Program Files/Kubotek/KeyCreatorPro.2021.SP0/STEP/SG1395.STP', '2021-02-25T21:44:10',(''), (''), 'KCM Version 2.0.6974.6974', 'KeyCreator Pro', '');
FILE_SCHEMA(('AUTOMOTIVE_DESIGN'));
ENDSEC;
DATA;
#1=PRODUCT_DEFINITION_CONTEXT('',#4,'design');
#2=PRODUCT_CONTEXT('',#4,'mechanical');
#3=APPLICATION_PROTOCOL_DEFINITION('International Standard','automotive_design',2001,#4);
#4=APPLICATION_CONTEXT('automotive design');
#10=DIMENSIONAL_EXPONENTS(1.0,0.0,0.0,0.0,0.0,0.0,0.0);
#11=DIMENSIONAL_EXPONENTS(0.0,0.0,0.0,0.0,0.0,0.0,0.0);
#12=(NAMED_UNIT(#10)LENGTH_UNIT()SI_UNIT(.MILLI.,.METRE.));
#13=(NAMED_UNIT(#11)PLANE_ANGLE_UNIT()SI_UNIT($,.RADIAN.));
#14=(NAMED_UNIT(#11)SOLID_ANGLE_UNIT()SI_UNIT($,.STERADIAN.));
#15=LENGTH_MEASURE_WITH_UNIT(LENGTH_MEASURE(25.4),#12);
#16= (CONVERSION_BASED_UNIT('INCH',#15)LENGTH_UNIT()NAMED_UNIT(#10));
#17=UNCERTAINTY_MEASURE_WITH_UNIT(LENGTH_MEASURE(1.0E-006),#16,'','');
#18=(GEOMETRIC_REPRESENTATION_CONTEXT(3)GLOBAL_UNCERTAINTY_ASSIGNED_CONTEXT((#17))GLOBAL_UNIT_ASSIGNED_CONTEXT((#16,#13,#14))REPRESENTATION_CONTEXT('NONE','WORKSPACE'));
#20=CARTESIAN_POINT('',(0.00000000000000,0.00000000000000,0.00000000000000));
#21=DIRECTION('',(0.00000000000000,0.00000000000000,1.00000000000000));
#22=DIRECTION('',(1.00000000000000,0.00000000000000,0.00000000000000));
#23=AXIS2_PLACEMENT_3D('',#20,#21,#22);
#24=CARTESIAN_POINT('',(2.98393648805555,2.29701152231664,-0.250000000000001));
#25=VERTEX_POINT('',#24);
#26=CARTESIAN_POINT('',(2.87465445575279,2.29701152231664,-0.279282032302756));
#27=VERTEX_POINT('',#26);
#28=CARTESIAN_POINT('',(2.91465445575279,2.29701152231664,-0.210000000000001));
#29=DIRECTION('',(0.00000000000000,1.00000000000000,-6.12323399573677E-17));
#30=DIRECTION('',(1.00000000000000,0.00000000000000,0.00000000000000));
#31=AXIS2_PLACEMENT_3D('',#28,#29,#30);
#32=CIRCLE('',#31,0.0800000000000000);
#33=EDGE_CURVE('',#25,#27,#32,.T.);
#34=ORIENTED_EDGE('',*,*,#33,.T.);
#35=CARTESIAN_POINT('',(2.87465445575279,8.29701152231664,-0.279282032302756));
#36=VERTEX_POINT('',#35);
#37=CARTESIAN_POINT('',(2.87465445575279,5.29701152231664,-0.279282032302756));
#38=DIRECTION('',(0.00000000000000,1.00000000000000,0.00000000000000));
#39=VECTOR('',#38,1.00000000000000);
#40=LINE('',#37,#39);
#41=EDGE_CURVE('',#27,#36,#40,.T.);
#42=ORIENTED_EDGE('',*,*,#41,.T.);
#43=CARTESIAN_POINT('',(2.98393648805555,8.29701152231664,-0.250000000000001));
#44=VERTEX_POINT('',#43);
#45=CARTESIAN_POINT('',(2.91465445575279,8.29701152231664,-0.210000000000001));
#46=DIRECTION('',(0.00000000000000,-1.00000000000000,6.12323399573677E-17));
#47=DIRECTION('',(1.00000000000000,0.00000000000000,0.00000000000000));
#48=AXIS2_PLACEMENT_3D('',#45,#46,#47);
#49=CIRCLE('',#48,0.0800000000000000);
#50=EDGE_CURVE('',#36,#44,#49,.T.);
#51=ORIENTED_EDGE('',*,*,#50,.T.);
#52=CARTESIAN_POINT('',(2.98393648805555,5.29701152231664,-0.250000000000001));
#53=DIRECTION('',(0.00000000000000,-1.00000000000000,0.00000000000000));
#54=VECTOR('',#53,1.00000000000000);
#55=LINE('',#52,#54);
#56=EDGE_CURVE('',#44,#25,#55,.T.);
#57=ORIENTED_EDGE('',*,*,#56,.T.);
#58=EDGE_LOOP('',(#34,#42,#51,#57));
#59=FACE_OUTER_BOUND('',#58,.T.);
#60=CARTESIAN_POINT('',(2.91465445575279,5.29701152231664,-0.210000000000001));
#61=DIRECTION('',(0.00000000000000,-1.00000000000000,0.00000000000000));
#62=DIRECTION('',(1.00000000000000,0.00000000000000,0.00000000000000));
#63=AXIS2_PLACEMENT_3D('',#60,#61,#62);
#64=CYLINDRICAL_SURFACE('',#63,0.0800000000000000);
#65=ADVANCED_FACE('',(#59),#64,.T.);
#66=CARTESIAN_POINT('',(2.51092378616333,2.29701152231664,-0.0692820323027572));
#67=VERTEX_POINT('',#66);
#68=CARTESIAN_POINT('',(2.51092378616333,2.29701152231664,-0.0692820323027572));
#69=DIRECTION('',(-0.866025403784439,0.00000000000000,0.499999999999999));
#70=VECTOR('',#69,1.00000000000000);
#71=LINE('',#68,#70);
#72=EDGE_CURVE('',#27,#67,#71,.T.);
#73=ORIENTED_EDGE('',*,*,#72,.T.);
#74=CARTESIAN_POINT('',(2.51092378616333,8.29701152231664,-0.0692820323027572));
#75=VERTEX_POINT('',#74);
#76=CARTESIAN_POINT('',(2.51092378616333,5.29701152231664,-0.0692820323027572));
#77=DIRECTION('',(0.00000000000000,-1.00000000000000,0.00000000000000));
#78=VECTOR('',#77,1.00000000000000);
#79=LINE('',#76,#78);
#80=EDGE_CURVE('',#75,#67,#79,.T.);
#81=ORIENTED_EDGE('',*,*,#80,.F.);
#82=CARTESIAN_POINT('',(2.51092378616333,8.29701152231664,-0.0692820323027572));
#83=DIRECTION('',(0.866025403784439,0.00000000000000,-0.499999999999999));
#84=VECTOR('',#83,1.00000000000000);
#85=LINE('',#82,#84);
#86=EDGE_CURVE('',#75,#36,#85,.T.);
#87=ORIENTED_EDGE('',*,*,#86,.T.);
#88=ORIENTED_EDGE('',*,*,#41,.F.);
#89=EDGE_LOOP('',(#73,#81,#87,#88));
#90=FACE_OUTER_BOUND('',#89,.T.);
#91=CARTESIAN_POINT('',(2.69278912095806,5.29701152231664,-0.174282032302757));
#92=DIRECTION('',(-0.499999999999999,-0.00000000000000,-0.866025403784439));
#93=DIRECTION('',(0.866025403784439,0.00000000000000,-0.499999999999999));
#94=AXIS2_PLACEMENT_3D('',#91,#92,#93);
#95=PLANE('',#94);
#96=ADVANCED_FACE('',(#90),#95,.T.);
#97=CARTESIAN_POINT('',(2.14719311657387,2.29701152231664,-0.279282032302755));
#98=VERTEX_POINT('',#97);
#99=CARTESIAN_POINT('',(2.51092378616333,2.29701152231664,-0.0692820323027572));
#100=DIRECTION('',(-0.866025403784439,0.00000000000000,-0.500000000000000));
#101=VECTOR('',#100,1.00000000000000);
#102=LINE('',#99,#101);
#103=EDGE_CURVE('',#67,#98,#102,.T.);
#104=ORIENTED_EDGE('',*,*,#103,.T.);
#105=CARTESIAN_POINT('',(2.14719311657387,8.29701152231664,-0.279282032302755));
#106=VERTEX_POINT('',#105);
#107=CARTESIAN_POINT('',(2.14719311657387,5.29701152231664,-0.279282032302755));
#108=DIRECTION('',(0.00000000000000,-1.00000000000000,0.00000000000000));
#109=VECTOR('',#108,1.00000000000000);
#110=LINE('',#107,#109);
#111=EDGE_CURVE('',#106,#98,#110,.T.);
#112=ORIENTED_EDGE('',*,*,#111,.F.);
#113=CARTESIAN_POINT('',(2.51092378616333,8.29701152231664,-0.0692820323027572));
#114=DIRECTION('',(0.866025403784439,0.00000000000000,0.500000000000000));
#115=VECTOR('',#114,1.00000000000000);
#116=LINE('',#113,#115);
#117=EDGE_CURVE('',#106,#75,#116,.T.);
#118=ORIENTED_EDGE('',*,*,#117,.T.);
#119=ORIENTED_EDGE('',*,*,#80,.T.);
#120=EDGE_LOOP('',(#104,#112,#118,#119));
#121=FACE_OUTER_BOUND('',#120,.T.);
#122=CARTESIAN_POINT('',(2.32905845136860,5.29701152231664,-0.174282032302756));
#123=DIRECTION('',(0.500000000000000,0.00000000000000,-0.866025403784439));
#124=DIRECTION('',(0.866025403784439,-0.00000000000000,0.500000000000000));
#125=AXIS2_PLACEMENT_3D('',#122,#123,#124);
#126=PLANE('',#125);
#127=ADVANCED_FACE('',(#121),#126,.T.);
#128=CARTESIAN_POINT('',(2.03791108427111,2.29701152231664,-0.250000000000001));
#129=VERTEX_POINT('',#128);
#130=CARTESIAN_POINT('',(2.10719311657387,2.29701152231664,-0.210000000000001));
#131=DIRECTION('',(0.00000000000000,1.00000000000000,-6.12323399573677E-17));
#132=DIRECTION('',(1.00000000000000,0.00000000000000,0.00000000000000));
#133=AXIS2_PLACEMENT_3D('',#130,#131,#132);
#134=CIRCLE('',#133,0.0799999999999994);
#135=EDGE_CURVE('',#98,#129,#134,.T.);
#136=ORIENTED_EDGE('',*,*,#135,.T.);
#137=CARTESIAN_POINT('',(2.03791108427111,8.29701152231664,-0.250000000000001));
#138=VERTEX_POINT('',#137);
#139=CARTESIAN_POINT('',(2.03791108427111,5.29701152231664,-0.250000000000001));
#140=DIRECTION('',(0.00000000000000,1.00000000000000,0.00000000000000));
#141=VECTOR('',#140,1.00000000000000);
#142=LINE('',#139,#141);
#143=EDGE_CURVE('',#129,#138,#142,.T.);
#144=ORIENTED_EDGE('',*,*,#143,.T.);
#145=CARTESIAN_POINT('',(2.10719311657387,8.29701152231664,-0.210000000000001));
#146=DIRECTION('',(0.00000000000000,-1.00000000000000,6.12323399573677E-17));
#147=DIRECTION('',(1.00000000000000,0.00000000000000,0.00000000000000));
#148=AXIS2_PLACEMENT_3D('',#145,#146,#147);
#149=CIRCLE('',#148,0.0799999999999994);
#150=EDGE_CURVE('',#138,#106,#149,.T.);
#151=ORIENTED_EDGE('',*,*,#150,.T.);
#152=ORIENTED_EDGE('',*,*,#111,.T.);
#153=EDGE_LOOP('',(#136,#144,#151,#152));
#154=FACE_OUTER_BOUND('',#153,.T.);
#155=CARTESIAN_POINT('',(2.10719311657387,5.29701152231664,-0.210000000000001));
#156=DIRECTION('',(0.00000000000000,-1.00000000000000,0.00000000000000));
#157=DIRECTION('',(1.00000000000000,0.00000000000000,0.00000000000000));
#158=AXIS2_PLACEMENT_3D('',#155,#156,#157);
#159=CYLINDRICAL_SURFACE('',#158,0.0799999999999994);
#160=ADVANCED_FACE('',(#154),#159,.T.);
#161=CARTESIAN_POINT('',(2.47092378616333,2.29701152231664,-2.66453525910038E-15));
#162=VERTEX_POINT('',#161);
#163=CARTESIAN_POINT('',(2.47092378616333,2.29701152231664,-2.66453525910038E-15));
#164=DIRECTION('',(0.866025403784437,0.00000000000000,0.500000000000002));
#165=VECTOR('',#164,1.00000000000000);
#166=LINE('',#163,#165);
#167=EDGE_CURVE('',#129,#162,#166,.T.);
#168=ORIENTED_EDGE('',*,*,#167,.T.);
#169=CARTESIAN_POINT('',(2.47092378616333,8.29701152231664,-2.66453525910038E-15));
#170=VERTEX_POINT('',#169);
#171=CARTESIAN_POINT('',(2.47092378616333,5.29701152231664,-2.66453525910038E-15));
#172=DIRECTION('',(0.00000000000000,1.00000000000000,0.00000000000000));
#173=VECTOR('',#172,1.00000000000000);
#174=LINE('',#171,#173);
#175=EDGE_CURVE('',#162,#170,#174,.T.);
#176=ORIENTED_EDGE('',*,*,#175,.T.);
#177=CARTESIAN_POINT('',(2.47092378616333,8.29701152231664,-2.66453525910038E-15));
#178=DIRECTION('',(-0.866025403784437,0.00000000000000,-0.500000000000002));
#179=VECTOR('',#178,1.00000000000000);
#180=LINE('',#177,#179);
#181=EDGE_CURVE('',#170,#138,#180,.T.);
#182=ORIENTED_EDGE('',*,*,#181,.T.);
#183=ORIENTED_EDGE('',*,*,#143,.F.);
#184=EDGE_LOOP('',(#168,#176,#182,#183));
#185=FACE_OUTER_BOUND('',#184,.T.);
#186=CARTESIAN_POINT('',(2.25441743521722,5.29701152231664,-0.125000000000002));
#187=DIRECTION('',(-0.500000000000002,0.00000000000000,0.866025403784437));
#188=DIRECTION('',(-0.866025403784437,0.00000000000000,-0.500000000000002));
#189=AXIS2_PLACEMENT_3D('',#186,#187,#188);
#190=PLANE('',#189);
#191=ADVANCED_FACE('',(#185),#190,.T.);
#192=CARTESIAN_POINT('',(2.47092378616333,2.29701152231664,0.288675134594811));
#193=VERTEX_POINT('',#192);
#194=CARTESIAN_POINT('',(2.47092378616333,2.29701152231664,0.00000000000000));
#195=DIRECTION('',(0.00000000000000,0.00000000000000,1.00000000000000));
#196=VECTOR('',#195,1.00000000000000);
#197=LINE('',#194,#196);
#198=EDGE_CURVE('',#162,#193,#197,.T.);
#199=ORIENTED_EDGE('',*,*,#198,.T.);
#200=CARTESIAN_POINT('',(2.47092378616333,8.29701152231664,0.288675134594811));
#201=VERTEX_POINT('',#200);
#202=CARTESIAN_POINT('',(2.47092378616333,5.29701152231664,0.288675134594811));
#203=DIRECTION('',(0.00000000000000,1.00000000000000,0.00000000000000));
#204=VECTOR('',#203,1.00000000000000);
#205=LINE('',#202,#204);
#206=EDGE_CURVE('',#193,#201,#205,.T.);
#207=ORIENTED_EDGE('',*,*,#206,.T.);
#208=CARTESIAN_POINT('',(2.47092378616333,8.29701152231664,0.00000000000000));
#209=DIRECTION('',(-0.00000000000000,-0.00000000000000,-1.00000000000000));
#210=VECTOR('',#209,1.00000000000000);
#211=LINE('',#208,#210);
#212=EDGE_CURVE('',#201,#170,#211,.T.);
#213=ORIENTED_EDGE('',*,*,#212,.T.);
#214=ORIENTED_EDGE('',*,*,#175,.F.);
#215=EDGE_LOOP('',(#199,#207,#213,#214));
#216=FACE_OUTER_BOUND('',#215,.T.);
#217=CARTESIAN_POINT('',(2.47092378616333,5.29701152231664,0.144337567297404));
#218=DIRECTION('',(-1.00000000000000,0.00000000000000,0.00000000000000));
#219=DIRECTION('',(-0.00000000000000,-0.00000000000000,-1.00000000000000));
#220=AXIS2_PLACEMENT_3D('',#217,#218,#219);
#221=PLANE('',#220);
#222=ADVANCED_FACE('',(#216),#221,.T.);
#223=CARTESIAN_POINT('',(2.14616425974417,2.29701152231664,0.101175134594813));
#224=VERTEX_POINT('',#223);
#225=CARTESIAN_POINT('',(2.47092378616333,2.29701152231664,0.288675134594811));
#226=DIRECTION('',(-0.866025403784437,0.00000000000000,-0.500000000000003));
#227=VECTOR('',#226,1.00000000000000);
#228=LINE('',#225,#227);
#229=EDGE_CURVE('',#193,#224,#228,.T.);
#230=ORIENTED_EDGE('',*,*,#229,.T.);
#231=CARTESIAN_POINT('',(2.14616425974417,8.29701152231664,0.101175134594813));
#232=VERTEX_POINT('',#231);
#233=CARTESIAN_POINT('',(2.14616425974417,5.29701152231664,0.101175134594813));
#234=DIRECTION('',(0.00000000000000,-1.00000000000000,0.00000000000000));
#235=VECTOR('',#234,1.00000000000000);
#236=LINE('',#233,#235);
#237=EDGE_CURVE('',#232,#224,#236,.T.);
#238=ORIENTED_EDGE('',*,*,#237,.F.);
#239=CARTESIAN_POINT('',(2.47092378616333,8.29701152231664,0.288675134594811));
#240=DIRECTION('',(0.866025403784437,0.00000000000000,0.500000000000003));
#241=VECTOR('',#240,1.00000000000000);
#242=LINE('',#239,#241);
#243=EDGE_CURVE('',#232,#201,#242,.T.);
#244=ORIENTED_EDGE('',*,*,#243,.T.);
#245=ORIENTED_EDGE('',*,*,#206,.F.);
#246=EDGE_LOOP('',(#230,#238,#244,#245));
#247=FACE_OUTER_BOUND('',#246,.T.);
#248=CARTESIAN_POINT('',(2.30854402295375,5.29701152231664,0.194925134594812));
#249=DIRECTION('',(0.500000000000003,0.00000000000000,-0.866025403784437));
#250=DIRECTION('',(0.866025403784437,-0.00000000000000,0.500000000000003));
#251=AXIS2_PLACEMENT_3D('',#248,#249,#250);
#252=PLANE('',#251);
#253=ADVANCED_FACE('',(#247),#252,.T.);
#254=CARTESIAN_POINT('',(2.17544629204692,2.29701152231664,0.210457166897568));
#255=VERTEX_POINT('',#254);
#256=CARTESIAN_POINT('',(2.21544629204692,2.29701152231664,0.141175134594814));
#257=DIRECTION('',(0.00000000000000,1.00000000000000,-6.12323399573677E-17));
#258=DIRECTION('',(1.00000000000000,0.00000000000000,0.00000000000000));
#259=AXIS2_PLACEMENT_3D('',#256,#257,#258);
#260=CIRCLE('',#259,0.0799999999999997);
#261=EDGE_CURVE('',#224,#255,#260,.T.);
#262=ORIENTED_EDGE('',*,*,#261,.T.);
#263=CARTESIAN_POINT('',(2.17544629204692,8.29701152231664,0.210457166897568));
#264=VERTEX_POINT('',#263);
#265=CARTESIAN_POINT('',(2.17544629204692,5.29701152231664,0.210457166897568));
#266=DIRECTION('',(0.00000000000000,1.00000000000000,0.00000000000000));
#267=VECTOR('',#266,1.00000000000000);
#268=LINE('',#265,#267);
#269=EDGE_CURVE('',#255,#264,#268,.T.);
#270=ORIENTED_EDGE('',*,*,#269,.T.);
#271=CARTESIAN_POINT('',(2.21544629204692,8.29701152231664,0.141175134594814));
#272=DIRECTION('',(0.00000000000000,-1.00000000000000,6.12323399573677E-17));
#273=DIRECTION('',(1.00000000000000,0.00000000000000,0.00000000000000));
#274=AXIS2_PLACEMENT_3D('',#271,#272,#273);
#275=CIRCLE('',#274,0.0799999999999997);
#276=EDGE_CURVE('',#264,#232,#275,.T.);
#277=ORIENTED_EDGE('',*,*,#276,.T.);
#278=ORIENTED_EDGE('',*,*,#237,.T.);
#279=EDGE_LOOP('',(#262,#270,#277,#278));
#280=FACE_OUTER_BOUND('',#279,.T.);
#281=CARTESIAN_POINT('',(2.21544629204692,5.29701152231664,0.141175134594814));
#282=DIRECTION('',(0.00000000000000,-1.00000000000000,0.00000000000000));
#283=DIRECTION('',(1.00000000000000,0.00000000000000,0.00000000000000));
#284=AXIS2_PLACEMENT_3D('',#281,#282,#283);
#285=CYLINDRICAL_SURFACE('',#284,0.0799999999999997);
#286=ADVANCED_FACE('',(#280),#285,.T.);
#287=CARTESIAN_POINT('',(2.47092378616333,2.29701152231664,0.381051177665151));
#288=VERTEX_POINT('',#287);
#289=CARTESIAN_POINT('',(2.47092378616333,2.29701152231664,0.381051177665151));
#290=DIRECTION('',(0.866025403784439,0.00000000000000,0.500000000000000));
#291=VECTOR('',#290,1.00000000000000);
#292=LINE('',#289,#291);
#293=EDGE_CURVE('',#255,#288,#292,.T.);
#294=ORIENTED_EDGE('',*,*,#293,.T.);
#295=CARTESIAN_POINT('',(2.47092378616333,8.29701152231664,0.381051177665151));
#296=VERTEX_POINT('',#295);
#297=CARTESIAN_POINT('',(2.47092378616333,5.29701152231664,0.381051177665151));
#298=DIRECTION('',(0.00000000000000,-1.00000000000000,0.00000000000000));
#299=VECTOR('',#298,1.00000000000000);
#300=LINE('',#297,#299);
#301=EDGE_CURVE('',#296,#288,#300,.T.);
#302=ORIENTED_EDGE('',*,*,#301,.F.);
#303=CARTESIAN_POINT('',(2.47092378616333,8.29701152231664,0.381051177665151));
#304=DIRECTION('',(-0.866025403784439,0.00000000000000,-0.500000000000000));
#305=VECTOR('',#304,1.00000000000000);
#306=LINE('',#303,#305);
#307=EDGE_CURVE('',#296,#264,#306,.T.);
#308=ORIENTED_EDGE('',*,*,#307,.T.);
#309=ORIENTED_EDGE('',*,*,#269,.F.);
#310=EDGE_LOOP('',(#294,#302,#308,#309));
#311=FACE_OUTER_BOUND('',#310,.T.);
#312=CARTESIAN_POINT('',(2.32318503910513,5.29701152231664,0.295754172281359));
#313=DIRECTION('',(-0.500000000000000,0.00000000000000,0.866025403784439));
#314=DIRECTION('',(-0.866025403784439,0.00000000000000,-0.500000000000000));
#315=AXIS2_PLACEMENT_3D('',#312,#313,#314);
#316=PLANE('',#315);
#317=ADVANCED_FACE('',(#311),#316,.T.);
#318=CARTESIAN_POINT('',(2.55092378616333,2.29701152231664,0.381051177665152));
#319=VERTEX_POINT('',#318);
#320=CARTESIAN_POINT('',(2.51092378616333,2.29701152231664,0.311769145362396));
#321=DIRECTION('',(0.00000000000000,1.00000000000000,-6.12323399573677E-17));
#322=DIRECTION('',(1.00000000000000,0.00000000000000,0.00000000000000));
#323=AXIS2_PLACEMENT_3D('',#320,#321,#322);
#324=CIRCLE('',#323,0.0799999999999994);
#325=EDGE_CURVE('',#288,#319,#324,.T.);
#326=ORIENTED_EDGE('',*,*,#325,.T.);
#327=CARTESIAN_POINT('',(2.55092378616333,8.29701152231664,0.381051177665152));
#328=VERTEX_POINT('',#327);
#329=CARTESIAN_POINT('',(2.55092378616333,5.29701152231664,0.381051177665152));
#330=DIRECTION('',(0.00000000000000,1.00000000000000,0.00000000000000));
#331=VECTOR('',#330,1.00000000000000);
#332=LINE('',#329,#331);
#333=EDGE_CURVE('',#319,#328,#332,.T.);
#334=ORIENTED_EDGE('',*,*,#333,.T.);
#335=CARTESIAN_POINT('',(2.51092378616333,8.29701152231664,0.311769145362396));
#336=DIRECTION('',(0.00000000000000,-1.00000000000000,6.12323399573677E-17));
#337=DIRECTION('',(1.00000000000000,0.00000000000000,0.00000000000000));
#338=AXIS2_PLACEMENT_3D('',#335,#336,#337);
#339=CIRCLE('',#338,0.0799999999999994);
#340=EDGE_CURVE('',#328,#296,#339,.T.);
#341=ORIENTED_EDGE('',*,*,#340,.T.);
#342=ORIENTED_EDGE('',*,*,#301,.T.);
#343=EDGE_LOOP('',(#326,#334,#341,#342));
#344=FACE_OUTER_BOUND('',#343,.T.);
#345=CARTESIAN_POINT('',(2.51092378616333,5.29701152231664,0.311769145362396));
#346=DIRECTION('',(0.00000000000000,-1.00000000000000,0.00000000000000));
#347=DIRECTION('',(1.00000000000000,0.00000000000000,0.00000000000000));
#348=AXIS2_PLACEMENT_3D('',#345,#346,#347);
#349=CYLINDRICAL_SURFACE('',#348,0.0799999999999994);
#350=ADVANCED_FACE('',(#344),#349,.T.);
#351=CARTESIAN_POINT('',(2.84640128027974,2.29701152231664,0.210457166897566));
#352=VERTEX_POINT('',#351);
#353=CARTESIAN_POINT('',(2.55092378616333,2.29701152231664,0.381051177665152));
#354=DIRECTION('',(0.866025403784437,0.00000000000000,-0.500000000000002));
#355=VECTOR('',#354,1.00000000000000);
#356=LINE('',#353,#355);
#357=EDGE_CURVE('',#319,#352,#356,.T.);
#358=ORIENTED_EDGE('',*,*,#357,.T.);
#359=CARTESIAN_POINT('',(2.84640128027974,8.29701152231664,0.210457166897566));
#360=VERTEX_POINT('',#359);
#361=CARTESIAN_POINT('',(2.84640128027974,5.29701152231664,0.210457166897566));
#362=DIRECTION('',(0.00000000000000,-1.00000000000000,0.00000000000000));
#363=VECTOR('',#362,1.00000000000000);
#364=LINE('',#361,#363);
#365=EDGE_CURVE('',#360,#352,#364,.T.);
#366=ORIENTED_EDGE('',*,*,#365,.F.);
#367=CARTESIAN_POINT('',(2.55092378616333,8.29701152231664,0.381051177665152));
#368=DIRECTION('',(-0.866025403784437,0.00000000000000,0.500000000000002));
#369=VECTOR('',#368,1.00000000000000);
#370=LINE('',#367,#369);
#371=EDGE_CURVE('',#360,#328,#370,.T.);
#372=ORIENTED_EDGE('',*,*,#371,.T.);
#373=ORIENTED_EDGE('',*,*,#333,.F.);
#374=EDGE_LOOP('',(#358,#366,#372,#373));
#375=FACE_OUTER_BOUND('',#374,.T.);
#376=CARTESIAN_POINT('',(2.69866253322154,5.29701152231664,0.295754172281359));
#377=DIRECTION('',(0.500000000000002,0.00000000000000,0.866025403784437));
#378=DIRECTION('',(-0.866025403784437,-0.00000000000000,0.500000000000002));
#379=AXIS2_PLACEMENT_3D('',#376,#377,#378);
#380=PLANE('',#379);
#381=ADVANCED_FACE('',(#375),#380,.T.);
#382=CARTESIAN_POINT('',(2.87568331258249,2.29701152231664,0.101175134594810));
#383=VERTEX_POINT('',#382);
#384=CARTESIAN_POINT('',(2.80640128027974,2.29701152231664,0.141175134594810));
#385=DIRECTION('',(0.00000000000000,1.00000000000000,-6.12323399573677E-17));
#386=DIRECTION('',(1.00000000000000,0.00000000000000,0.00000000000000));
#387=AXIS2_PLACEMENT_3D('',#384,#385,#386);
#388=CIRCLE('',#387,0.0799999999999997);
#389=EDGE_CURVE('',#352,#383,#388,.T.);
#390=ORIENTED_EDGE('',*,*,#389,.T.);
#391=CARTESIAN_POINT('',(2.87568331258249,8.29701152231664,0.101175134594810));
#392=VERTEX_POINT('',#391);
#393=CARTESIAN_POINT('',(2.87568331258249,5.29701152231664,0.101175134594810));
#394=DIRECTION('',(0.00000000000000,1.00000000000000,0.00000000000000));
#395=VECTOR('',#394,1.00000000000000);
#396=LINE('',#393,#395);
#397=EDGE_CURVE('',#383,#392,#396,.T.);
#398=ORIENTED_EDGE('',*,*,#397,.T.);
#399=CARTESIAN_POINT('',(2.80640128027974,8.29701152231664,0.141175134594810));
#400=DIRECTION('',(0.00000000000000,-1.00000000000000,6.12323399573677E-17));
#401=DIRECTION('',(1.00000000000000,0.00000000000000,0.00000000000000));
#402=AXIS2_PLACEMENT_3D('',#399,#400,#401);
#403=CIRCLE('',#402,0.0799999999999997);
#404=EDGE_CURVE('',#392,#360,#403,.T.);
#405=ORIENTED_EDGE('',*,*,#404,.T.);
#406=ORIENTED_EDGE('',*,*,#365,.T.);
#407=EDGE_LOOP('',(#390,#398,#405,#406));
#408=FACE_OUTER_BOUND('',#407,.T.);
#409=CARTESIAN_POINT('',(2.80640128027974,5.29701152231664,0.141175134594810));
#410=DIRECTION('',(0.00000000000000,-1.00000000000000,0.00000000000000));
#411=DIRECTION('',(-0.965925826289068,0.00000000000000,-0.258819045102522));
#412=AXIS2_PLACEMENT_3D('',#409,#410,#411);
#413=CYLINDRICAL_SURFACE('',#412,0.0799999999999997);
#414=ADVANCED_FACE('',(#408),#413,.T.);
#415=CARTESIAN_POINT('',(2.55092378616333,2.29701152231664,0.288675134594811));
#416=VERTEX_POINT('',#415);
#417=CARTESIAN_POINT('',(2.55092378616333,2.29701152231664,0.288675134594811));
#418=DIRECTION('',(-0.866025403784438,0.00000000000000,0.500000000000001));
#419=VECTOR('',#418,1.00000000000000);
#420=LINE('',#417,#419);
#421=EDGE_CURVE('',#383,#416,#420,.T.);
#422=ORIENTED_EDGE('',*,*,#421,.T.);
#423=CARTESIAN_POINT('',(2.55092378616333,8.29701152231664,0.288675134594811));
#424=VERTEX_POINT('',#423);
#425=CARTESIAN_POINT('',(2.55092378616333,5.29701152231664,0.288675134594811));
#426=DIRECTION('',(0.00000000000000,-1.00000000000000,0.00000000000000));
#427=VECTOR('',#426,1.00000000000000);
#428=LINE('',#425,#427);
#429=EDGE_CURVE('',#424,#416,#428,.T.);
#430=ORIENTED_EDGE('',*,*,#429,.F.);
#431=CARTESIAN_POINT('',(2.55092378616333,8.29701152231664,0.288675134594811));
#432=DIRECTION('',(0.866025403784438,0.00000000000000,-0.500000000000001));
#433=VECTOR('',#432,1.00000000000000);
#434=LINE('',#431,#433);
#435=EDGE_CURVE('',#424,#392,#434,.T.);
#436=ORIENTED_EDGE('',*,*,#435,.T.);
#437=ORIENTED_EDGE('',*,*,#397,.F.);
#438=EDGE_LOOP('',(#422,#430,#436,#437));
#439=FACE_OUTER_BOUND('',#438,.T.);
#440=CARTESIAN_POINT('',(2.71330354937291,5.29701152231664,0.194925134594811));
#441=DIRECTION('',(-0.500000000000001,-0.00000000000000,-0.866025403784438));
#442=DIRECTION('',(0.866025403784438,0.00000000000000,-0.500000000000001));
#443=AXIS2_PLACEMENT_3D('',#440,#441,#442);
#444=PLANE('',#443);
#445=ADVANCED_FACE('',(#439),#444,.T.);
#446=CARTESIAN_POINT('',(2.55092378616333,2.29701152231664,-1.77635683940025E-15));
#447=VERTEX_POINT('',#446);
#448=CARTESIAN_POINT('',(2.55092378616333,2.29701152231664,0.00000000000000));
#449=DIRECTION('',(-0.00000000000000,-0.00000000000000,-1.00000000000000));
#450=VECTOR('',#449,1.00000000000000);
#451=LINE('',#448,#450);
#452=EDGE_CURVE('',#416,#447,#451,.T.);
#453=ORIENTED_EDGE('',*,*,#452,.T.);
#454=CARTESIAN_POINT('',(2.55092378616333,8.29701152231664,-1.77635683940025E-15));
#455=VERTEX_POINT('',#454);
#456=CARTESIAN_POINT('',(2.55092378616333,5.29701152231664,-1.77635683940025E-15));
#457=DIRECTION('',(0.00000000000000,1.00000000000000,0.00000000000000));
#458=VECTOR('',#457,1.00000000000000);
#459=LINE('',#456,#458);
#460=EDGE_CURVE('',#447,#455,#459,.T.);
#461=ORIENTED_EDGE('',*,*,#460,.T.);
#462=CARTESIAN_POINT('',(2.55092378616333,8.29701152231664,0.00000000000000));
#463=DIRECTION('',(0.00000000000000,0.00000000000000,1.00000000000000));
#464=VECTOR('',#463,1.00000000000000);
#465=LINE('',#462,#464);
#466=EDGE_CURVE('',#455,#424,#465,.T.);
#467=ORIENTED_EDGE('',*,*,#466,.T.);
#468=ORIENTED_EDGE('',*,*,#429,.T.);
#469=EDGE_LOOP('',(#453,#461,#467,#468));
#470=FACE_OUTER_BOUND('',#469,.T.);
#471=CARTESIAN_POINT('',(2.55092378616333,5.29701152231664,0.144337567297405));
#472=DIRECTION('',(1.00000000000000,0.00000000000000,-0.00000000000000));
#473=DIRECTION('',(0.00000000000000,0.00000000000000,1.00000000000000));
#474=AXIS2_PLACEMENT_3D('',#471,#472,#473);
#475=PLANE('',#474);
#476=ADVANCED_FACE('',(#470),#475,.T.);
#477=CARTESIAN_POINT('',(2.55092378616333,2.29701152231664,-1.77635683940025E-15));
#478=DIRECTION('',(0.866025403784439,0.00000000000000,-0.499999999999999));
#479=VECTOR('',#478,1.00000000000000);
#480=LINE('',#477,#479);
#481=EDGE_CURVE('',#447,#25,#480,.T.);
#482=ORIENTED_EDGE('',*,*,#481,.T.);
#483=ORIENTED_EDGE('',*,*,#56,.F.);
#484=CARTESIAN_POINT('',(2.55092378616333,8.29701152231664,-1.77635683940025E-15));
#485=DIRECTION('',(-0.866025403784439,0.00000000000000,0.499999999999999));
#486=VECTOR('',#485,1.00000000000000);
#487=LINE('',#484,#486);
#488=EDGE_CURVE('',#44,#455,#487,.T.);
#489=ORIENTED_EDGE('',*,*,#488,.T.);
#490=ORIENTED_EDGE('',*,*,#460,.F.);
#491=EDGE_LOOP('',(#482,#483,#489,#490));
#492=FACE_OUTER_BOUND('',#491,.T.);
#493=CARTESIAN_POINT('',(2.76743013710944,5.29701152231664,-0.125000000000001));
#494=DIRECTION('',(0.499999999999999,0.00000000000000,0.866025403784439));
#495=DIRECTION('',(-0.866025403784439,-0.00000000000000,0.499999999999999));
#496=AXIS2_PLACEMENT_3D('',#493,#494,#495);
#497=PLANE('',#496);
#498=ADVANCED_FACE('',(#492),#497,.T.);
#499=ORIENTED_EDGE('',*,*,#33,.F.);
#500=ORIENTED_EDGE('',*,*,#481,.F.);
#501=ORIENTED_EDGE('',*,*,#452,.F.);
#502=ORIENTED_EDGE('',*,*,#421,.F.);
#503=ORIENTED_EDGE('',*,*,#389,.F.);
#504=ORIENTED_EDGE('',*,*,#357,.F.);
#505=ORIENTED_EDGE('',*,*,#325,.F.);
#506=ORIENTED_EDGE('',*,*,#293,.F.);
#507=ORIENTED_EDGE('',*,*,#261,.F.);
#508=ORIENTED_EDGE('',*,*,#229,.F.);
#509=ORIENTED_EDGE('',*,*,#198,.F.);
#510=ORIENTED_EDGE('',*,*,#167,.F.);
#511=ORIENTED_EDGE('',*,*,#135,.F.);
#512=ORIENTED_EDGE('',*,*,#103,.F.);
#513=ORIENTED_EDGE('',*,*,#72,.F.);
#514=EDGE_LOOP('',(#499,#500,#501,#502,#503,#504,#505,#506,#507,#508,#509,#510,#511,#512,#513));
#515=FACE_OUTER_BOUND('',#514,.T.);
#516=CARTESIAN_POINT('',(2.68616447828182,2.29701152231664,-0.0780812500000015));
#517=DIRECTION('',(0.00000000000000,-1.00000000000000,0.00000000000000));
#518=DIRECTION('',(1.00000000000000,0.00000000000000,0.00000000000000));
#519=AXIS2_PLACEMENT_3D('',#516,#517,#518);
#520=PLANE('',#519);
#521=ADVANCED_FACE('',(#515),#520,.T.);
#522=ORIENTED_EDGE('',*,*,#466,.F.);
#523=ORIENTED_EDGE('',*,*,#488,.F.);
#524=ORIENTED_EDGE('',*,*,#50,.F.);
#525=ORIENTED_EDGE('',*,*,#86,.F.);
#526=ORIENTED_EDGE('',*,*,#117,.F.);
#527=ORIENTED_EDGE('',*,*,#150,.F.);
#528=ORIENTED_EDGE('',*,*,#181,.F.);
#529=ORIENTED_EDGE('',*,*,#212,.F.);
#530=ORIENTED_EDGE('',*,*,#243,.F.);
#531=ORIENTED_EDGE('',*,*,#276,.F.);
#532=ORIENTED_EDGE('',*,*,#307,.F.);
#533=ORIENTED_EDGE('',*,*,#340,.F.);
#534=ORIENTED_EDGE('',*,*,#371,.F.);
#535=ORIENTED_EDGE('',*,*,#404,.F.);
#536=ORIENTED_EDGE('',*,*,#435,.F.);
#537=EDGE_LOOP('',(#522,#523,#524,#525,#526,#527,#528,#529,#530,#531,#532,#533,#534,#535,#536));
#538=FACE_OUTER_BOUND('',#537,.T.);
#539=CARTESIAN_POINT('',(2.68616447828182,8.29701152231664,-0.0780812500000015));
#540=DIRECTION('',(0.00000000000000,-1.00000000000000,0.00000000000000));
#541=DIRECTION('',(1.00000000000000,0.00000000000000,0.00000000000000));
#542=AXIS2_PLACEMENT_3D('',#539,#540,#541);
#543=PLANE('',#542);
#544=ADVANCED_FACE('',(#538),#543,.F.);
#545=CLOSED_SHELL('',(#65,#96,#127,#160,#191,#222,#253,#286,#317,#350,#381,#414,#445,#476,#498,#521,#544));
#546=MANIFOLD_SOLID_BREP('',#545);
#547=COLOUR_RGB('',1.00000000000000,0.00000000000000,0.00000000000000);
#548=FILL_AREA_STYLE_COLOUR('',#547);
#549=FILL_AREA_STYLE('',(#548));
#550=SURFACE_STYLE_FILL_AREA(#549);
#551=SURFACE_SIDE_STYLE('',(#550));
#552=SURFACE_STYLE_USAGE(.BOTH.,#551);
#553=PRESENTATION_STYLE_ASSIGNMENT((#552));
#554=STYLED_ITEM('',(#553),#546);
#555=ADVANCED_BREP_SHAPE_REPRESENTATION('',(#546,#23),#18);
#556=PRODUCT('', '', ' ',(#2));
#557=PRODUCT_DEFINITION_FORMATION_WITH_SPECIFIED_SOURCE (' ', ' ', #556, .NOT_KNOWN.) ;
#558=PRODUCT_CATEGORY('part','') ;
#559=PRODUCT_RELATED_PRODUCT_CATEGORY('detail', ' ', (#556)) ;
#560=PRODUCT_CATEGORY_RELATIONSHIP(' ', ' ', #558, #559);
#561=PRODUCT_DEFINITION('', '', #557, #1);
#562=PRODUCT_DEFINITION_SHAPE('NONE', 'NONE', #561);
#563=SHAPE_DEFINITION_REPRESENTATION(#562, #555);
#564=PRESENTATION_LAYER_ASSIGNMENT('1','Unnamed [1]',(#546));
#565=MECHANICAL_DESIGN_GEOMETRIC_PRESENTATION_REPRESENTATION('',(#554), #18);
ENDSEC;
END-ISO-10303-21;
