ISO-10303-21;
HEADER;
FILE_DESCRIPTION((''),'2;1');
FILE_NAME('C:/Program Files/Kubotek/KeyCreatorPro.2021.SP0/STEP/SG1372.STP', '2021-02-12T18:36:53',(''), (''), 'KCM Version 2.0.6974.6974', 'KeyCreator Pro', '');
FILE_SCHEMA(('AUTOMOTIVE_DESIGN'));
ENDSEC;
DATA;
#1=PRODUCT_DEFINITION_CONTEXT('',#4,'design');
#2=PRODUCT_CONTEXT('',#4,'mechanical');
#3=APPLICATION_PROTOCOL_DEFINITION('International Standard','automotive_design',2001,#4);
#4=APPLICATION_CONTEXT('automotive design');
#10=DIMENSIONAL_EXPONENTS(1.0,0.0,0.0,0.0,0.0,0.0,0.0);
#11=DIMENSIONAL_EXPONENTS(0.0,0.0,0.0,0.0,0.0,0.0,0.0);
#12=(NAMED_UNIT(#10)LENGTH_UNIT()SI_UNIT(.MILLI.,.METRE.));
#13=(NAMED_UNIT(#11)PLANE_ANGLE_UNIT()SI_UNIT($,.RADIAN.));
#14=(NAMED_UNIT(#11)SOLID_ANGLE_UNIT()SI_UNIT($,.STERADIAN.));
#15=LENGTH_MEASURE_WITH_UNIT(LENGTH_MEASURE(25.4),#12);
#16= (CONVERSION_BASED_UNIT('INCH',#15)LENGTH_UNIT()NAMED_UNIT(#10));
#17=UNCERTAINTY_MEASURE_WITH_UNIT(LENGTH_MEASURE(1.0E-006),#16,'','');
#18=(GEOMETRIC_REPRESENTATION_CONTEXT(3)GLOBAL_UNCERTAINTY_ASSIGNED_CONTEXT((#17))GLOBAL_UNIT_ASSIGNED_CONTEXT((#16,#13,#14))REPRESENTATION_CONTEXT('NONE','WORKSPACE'));
#20=CARTESIAN_POINT('',(0.00000000000000,0.00000000000000,0.00000000000000));
#21=DIRECTION('',(0.00000000000000,0.00000000000000,1.00000000000000));
#22=DIRECTION('',(1.00000000000000,0.00000000000000,0.00000000000000));
#23=AXIS2_PLACEMENT_3D('',#20,#21,#22);
#24=CARTESIAN_POINT('',(3.49974993853099,8.75248985100066,0.740000000000000));
#25=VERTEX_POINT('',#24);
#26=CARTESIAN_POINT('',(3.49974993853099,8.75248985100066,-0.740000000000000));
#27=VERTEX_POINT('',#26);
#28=CARTESIAN_POINT('',(3.49974993853099,8.75248985100066,-0.740000000000000));
#29=DIRECTION('',(-0.00000000000000,-0.00000000000000,-1.00000000000000));
#30=VECTOR('',#29,1.00000000000000);
#31=LINE('',#28,#30);
#32=EDGE_CURVE('',#25,#27,#31,.T.);
#33=ORIENTED_EDGE('',*,*,#32,.T.);
#34=CARTESIAN_POINT('',(3.49974993853099,2.75248985100066,-0.740000000000000));
#35=VERTEX_POINT('',#34);
#36=CARTESIAN_POINT('',(3.49974993853099,2.75248985100066,-0.740000000000000));
#37=DIRECTION('',(0.00000000000000,1.00000000000000,0.00000000000000));
#38=VECTOR('',#37,1.00000000000000);
#39=LINE('',#36,#38);
#40=EDGE_CURVE('',#35,#27,#39,.T.);
#41=ORIENTED_EDGE('',*,*,#40,.F.);
#42=CARTESIAN_POINT('',(3.49974993853099,2.75248985100066,0.740000000000000));
#43=VERTEX_POINT('',#42);
#44=CARTESIAN_POINT('',(3.49974993853099,2.75248985100066,-0.740000000000000));
#45=DIRECTION('',(0.00000000000000,0.00000000000000,1.00000000000000));
#46=VECTOR('',#45,1.00000000000000);
#47=LINE('',#44,#46);
#48=EDGE_CURVE('',#35,#43,#47,.T.);
#49=ORIENTED_EDGE('',*,*,#48,.T.);
#50=CARTESIAN_POINT('',(3.49974993853099,2.75248985100066,0.740000000000000));
#51=DIRECTION('',(0.00000000000000,1.00000000000000,0.00000000000000));
#52=VECTOR('',#51,1.00000000000000);
#53=LINE('',#50,#52);
#54=EDGE_CURVE('',#43,#25,#53,.T.);
#55=ORIENTED_EDGE('',*,*,#54,.T.);
#56=EDGE_LOOP('',(#33,#41,#49,#55));
#57=FACE_OUTER_BOUND('',#56,.T.);
#58=CARTESIAN_POINT('',(3.49974993853099,2.75248985100066,2.22044604925031E-16));
#59=DIRECTION('',(-1.00000000000000,0.00000000000000,0.00000000000000));
#60=DIRECTION('',(0.00000000000000,0.00000000000000,1.00000000000000));
#61=AXIS2_PLACEMENT_3D('',#58,#59,#60);
#62=PLANE('',#61);
#63=ADVANCED_FACE('',(#57),#62,.T.);
#64=CARTESIAN_POINT('',(3.51974993853099,8.75248985100066,-0.760000000000000));
#65=VERTEX_POINT('',#64);
#66=CARTESIAN_POINT('',(3.51974993853099,8.75248985100066,-0.740000000000000));
#67=DIRECTION('',(0.00000000000000,-1.00000000000000,6.12323399573677E-17));
#68=DIRECTION('',(1.00000000000000,0.00000000000000,0.00000000000000));
#69=AXIS2_PLACEMENT_3D('',#66,#67,#68);
#70=CIRCLE('',#69,0.0200000000000000);
#71=EDGE_CURVE('',#27,#65,#70,.T.);
#72=ORIENTED_EDGE('',*,*,#71,.T.);
#73=CARTESIAN_POINT('',(3.51974993853099,2.75248985100066,-0.760000000000000));
#74=VERTEX_POINT('',#73);
#75=CARTESIAN_POINT('',(3.51974993853099,2.75248985100066,-0.760000000000000));
#76=DIRECTION('',(0.00000000000000,1.00000000000000,0.00000000000000));
#77=VECTOR('',#76,1.00000000000000);
#78=LINE('',#75,#77);
#79=EDGE_CURVE('',#74,#65,#78,.T.);
#80=ORIENTED_EDGE('',*,*,#79,.F.);
#81=CARTESIAN_POINT('',(3.51974993853099,2.75248985100066,-0.740000000000000));
#82=DIRECTION('',(0.00000000000000,-1.00000000000000,6.12323399573677E-17));
#83=DIRECTION('',(1.00000000000000,0.00000000000000,0.00000000000000));
#84=AXIS2_PLACEMENT_3D('',#81,#82,#83);
#85=CIRCLE('',#84,0.0200000000000000);
#86=EDGE_CURVE('',#35,#74,#85,.T.);
#87=ORIENTED_EDGE('',*,*,#86,.F.);
#88=ORIENTED_EDGE('',*,*,#40,.T.);
#89=EDGE_LOOP('',(#72,#80,#87,#88));
#90=FACE_OUTER_BOUND('',#89,.T.);
#91=CARTESIAN_POINT('',(3.51974993853099,2.75248985100066,-0.740000000000000));
#92=DIRECTION('',(0.00000000000000,1.00000000000000,0.00000000000000));
#93=DIRECTION('',(1.00000000000000,-0.00000000000000,0.00000000000000));
#94=AXIS2_PLACEMENT_3D('',#91,#92,#93);
#95=CYLINDRICAL_SURFACE('',#94,0.0200000000000000);
#96=ADVANCED_FACE('',(#90),#95,.T.);
#97=CARTESIAN_POINT('',(4.99974993853099,8.75248985100066,-0.760000000000000));
#98=VERTEX_POINT('',#97);
#99=CARTESIAN_POINT('',(4.99974993853099,8.75248985100066,-0.760000000000000));
#100=DIRECTION('',(1.00000000000000,0.00000000000000,0.00000000000000));
#101=VECTOR('',#100,1.00000000000000);
#102=LINE('',#99,#101);
#103=EDGE_CURVE('',#65,#98,#102,.T.);
#104=ORIENTED_EDGE('',*,*,#103,.T.);
#105=CARTESIAN_POINT('',(4.99974993853099,2.75248985100066,-0.760000000000000));
#106=VERTEX_POINT('',#105);
#107=CARTESIAN_POINT('',(4.99974993853099,2.75248985100066,-0.760000000000000));
#108=DIRECTION('',(0.00000000000000,1.00000000000000,0.00000000000000));
#109=VECTOR('',#108,1.00000000000000);
#110=LINE('',#107,#109);
#111=EDGE_CURVE('',#106,#98,#110,.T.);
#112=ORIENTED_EDGE('',*,*,#111,.F.);
#113=CARTESIAN_POINT('',(4.99974993853099,2.75248985100066,-0.760000000000000));
#114=DIRECTION('',(-1.00000000000000,0.00000000000000,0.00000000000000));
#115=VECTOR('',#114,1.00000000000000);
#116=LINE('',#113,#115);
#117=EDGE_CURVE('',#106,#74,#116,.T.);
#118=ORIENTED_EDGE('',*,*,#117,.T.);
#119=ORIENTED_EDGE('',*,*,#79,.T.);
#120=EDGE_LOOP('',(#104,#112,#118,#119));
#121=FACE_OUTER_BOUND('',#120,.T.);
#122=CARTESIAN_POINT('',(4.25974993853099,2.75248985100066,-0.760000000000000));
#123=DIRECTION('',(0.00000000000000,0.00000000000000,-1.00000000000000));
#124=DIRECTION('',(-1.00000000000000,0.00000000000000,0.00000000000000));
#125=AXIS2_PLACEMENT_3D('',#122,#123,#124);
#126=PLANE('',#125);
#127=ADVANCED_FACE('',(#121),#126,.T.);
#128=CARTESIAN_POINT('',(4.99974993853099,8.75248985100066,-0.670000000000000));
#129=VERTEX_POINT('',#128);
#130=CARTESIAN_POINT('',(4.99974993853099,8.75248985100066,-0.760000000000000));
#131=DIRECTION('',(0.00000000000000,0.00000000000000,1.00000000000000));
#132=VECTOR('',#131,1.00000000000000);
#133=LINE('',#130,#132);
#134=EDGE_CURVE('',#98,#129,#133,.T.);
#135=ORIENTED_EDGE('',*,*,#134,.T.);
#136=CARTESIAN_POINT('',(4.99974993853099,2.75248985100066,-0.670000000000000));
#137=VERTEX_POINT('',#136);
#138=CARTESIAN_POINT('',(4.99974993853099,2.75248985100066,-0.670000000000000));
#139=DIRECTION('',(0.00000000000000,1.00000000000000,0.00000000000000));
#140=VECTOR('',#139,1.00000000000000);
#141=LINE('',#138,#140);
#142=EDGE_CURVE('',#137,#129,#141,.T.);
#143=ORIENTED_EDGE('',*,*,#142,.F.);
#144=CARTESIAN_POINT('',(4.99974993853099,2.75248985100066,-0.760000000000000));
#145=DIRECTION('',(0.00000000000000,0.00000000000000,1.00000000000000));
#146=VECTOR('',#145,1.00000000000000);
#147=LINE('',#144,#146);
#148=EDGE_CURVE('',#106,#137,#147,.T.);
#149=ORIENTED_EDGE('',*,*,#148,.F.);
#150=ORIENTED_EDGE('',*,*,#111,.T.);
#151=EDGE_LOOP('',(#135,#143,#149,#150));
#152=FACE_OUTER_BOUND('',#151,.T.);
#153=CARTESIAN_POINT('',(4.99974993853099,2.75248985100066,-0.715000000000000));
#154=DIRECTION('',(1.00000000000000,0.00000000000000,0.00000000000000));
#155=DIRECTION('',(-0.00000000000000,-0.00000000000000,-1.00000000000000));
#156=AXIS2_PLACEMENT_3D('',#153,#154,#155);
#157=PLANE('',#156);
#158=ADVANCED_FACE('',(#152),#157,.T.);
#159=CARTESIAN_POINT('',(3.59974993853099,8.75248985100066,-0.670000000000000));
#160=VERTEX_POINT('',#159);
#161=CARTESIAN_POINT('',(4.99974993853099,8.75248985100066,-0.670000000000000));
#162=DIRECTION('',(-1.00000000000000,0.00000000000000,0.00000000000000));
#163=VECTOR('',#162,1.00000000000000);
#164=LINE('',#161,#163);
#165=EDGE_CURVE('',#129,#160,#164,.T.);
#166=ORIENTED_EDGE('',*,*,#165,.T.);
#167=CARTESIAN_POINT('',(3.59974993853099,2.75248985100066,-0.670000000000000));
#168=VERTEX_POINT('',#167);
#169=CARTESIAN_POINT('',(3.59974993853099,2.75248985100066,-0.670000000000000));
#170=DIRECTION('',(0.00000000000000,1.00000000000000,0.00000000000000));
#171=VECTOR('',#170,1.00000000000000);
#172=LINE('',#169,#171);
#173=EDGE_CURVE('',#168,#160,#172,.T.);
#174=ORIENTED_EDGE('',*,*,#173,.F.);
#175=CARTESIAN_POINT('',(4.99974993853099,2.75248985100066,-0.670000000000000));
#176=DIRECTION('',(-1.00000000000000,0.00000000000000,0.00000000000000));
#177=VECTOR('',#176,1.00000000000000);
#178=LINE('',#175,#177);
#179=EDGE_CURVE('',#137,#168,#178,.T.);
#180=ORIENTED_EDGE('',*,*,#179,.F.);
#181=ORIENTED_EDGE('',*,*,#142,.T.);
#182=EDGE_LOOP('',(#166,#174,#180,#181));
#183=FACE_OUTER_BOUND('',#182,.T.);
#184=CARTESIAN_POINT('',(4.29974993853099,2.75248985100066,-0.670000000000000));
#185=DIRECTION('',(0.00000000000000,-0.00000000000000,1.00000000000000));
#186=DIRECTION('',(1.00000000000000,-0.00000000000000,-0.00000000000000));
#187=AXIS2_PLACEMENT_3D('',#184,#185,#186);
#188=PLANE('',#187);
#189=ADVANCED_FACE('',(#183),#188,.T.);
#190=CARTESIAN_POINT('',(3.58974993853099,8.75248985100066,-0.660000000000000));
#191=VERTEX_POINT('',#190);
#192=CARTESIAN_POINT('',(3.59974993853099,8.75248985100066,-0.660000000000000));
#193=DIRECTION('',(0.00000000000000,1.00000000000000,-6.12323399573677E-17));
#194=DIRECTION('',(1.00000000000000,0.00000000000000,0.00000000000000));
#195=AXIS2_PLACEMENT_3D('',#192,#193,#194);
#196=CIRCLE('',#195,0.0100000000000000);
#197=EDGE_CURVE('',#160,#191,#196,.T.);
#198=ORIENTED_EDGE('',*,*,#197,.T.);
#199=CARTESIAN_POINT('',(3.58974993853099,2.75248985100066,-0.660000000000000));
#200=VERTEX_POINT('',#199);
#201=CARTESIAN_POINT('',(3.58974993853099,2.75248985100066,-0.660000000000000));
#202=DIRECTION('',(0.00000000000000,1.00000000000000,0.00000000000000));
#203=VECTOR('',#202,1.00000000000000);
#204=LINE('',#201,#203);
#205=EDGE_CURVE('',#200,#191,#204,.T.);
#206=ORIENTED_EDGE('',*,*,#205,.F.);
#207=CARTESIAN_POINT('',(3.59974993853099,2.75248985100066,-0.660000000000000));
#208=DIRECTION('',(0.00000000000000,-1.00000000000000,6.12323399573677E-17));
#209=DIRECTION('',(1.00000000000000,0.00000000000000,0.00000000000000));
#210=AXIS2_PLACEMENT_3D('',#207,#208,#209);
#211=CIRCLE('',#210,0.0100000000000000);
#212=EDGE_CURVE('',#200,#168,#211,.T.);
#213=ORIENTED_EDGE('',*,*,#212,.T.);
#214=ORIENTED_EDGE('',*,*,#173,.T.);
#215=EDGE_LOOP('',(#198,#206,#213,#214));
#216=FACE_OUTER_BOUND('',#215,.T.);
#217=CARTESIAN_POINT('',(3.59974993853099,2.75248985100066,-0.660000000000000));
#218=DIRECTION('',(0.00000000000000,1.00000000000000,0.00000000000000));
#219=DIRECTION('',(1.00000000000000,-0.00000000000000,0.00000000000000));
#220=AXIS2_PLACEMENT_3D('',#217,#218,#219);
#221=CYLINDRICAL_SURFACE('',#220,0.0100000000000000);
#222=ADVANCED_FACE('',(#216),#221,.F.);
#223=CARTESIAN_POINT('',(3.58974993853099,8.75248985100066,0.740000000000000));
#224=VERTEX_POINT('',#223);
#225=CARTESIAN_POINT('',(3.58974993853099,8.75248985100066,-0.660000000000000));
#226=DIRECTION('',(0.00000000000000,0.00000000000000,1.00000000000000));
#227=VECTOR('',#226,1.00000000000000);
#228=LINE('',#225,#227);
#229=EDGE_CURVE('',#191,#224,#228,.T.);
#230=ORIENTED_EDGE('',*,*,#229,.T.);
#231=CARTESIAN_POINT('',(3.58974993853099,2.75248985100066,0.740000000000000));
#232=VERTEX_POINT('',#231);
#233=CARTESIAN_POINT('',(3.58974993853099,2.75248985100066,0.740000000000000));
#234=DIRECTION('',(0.00000000000000,1.00000000000000,0.00000000000000));
#235=VECTOR('',#234,1.00000000000000);
#236=LINE('',#233,#235);
#237=EDGE_CURVE('',#232,#224,#236,.T.);
#238=ORIENTED_EDGE('',*,*,#237,.F.);
#239=CARTESIAN_POINT('',(3.58974993853099,2.75248985100066,-0.660000000000000));
#240=DIRECTION('',(0.00000000000000,0.00000000000000,1.00000000000000));
#241=VECTOR('',#240,1.00000000000000);
#242=LINE('',#239,#241);
#243=EDGE_CURVE('',#200,#232,#242,.T.);
#244=ORIENTED_EDGE('',*,*,#243,.F.);
#245=ORIENTED_EDGE('',*,*,#205,.T.);
#246=EDGE_LOOP('',(#230,#238,#244,#245));
#247=FACE_OUTER_BOUND('',#246,.T.);
#248=CARTESIAN_POINT('',(3.58974993853099,2.75248985100066,0.0400000000000003));
#249=DIRECTION('',(1.00000000000000,0.00000000000000,0.00000000000000));
#250=DIRECTION('',(-0.00000000000000,-0.00000000000000,-1.00000000000000));
#251=AXIS2_PLACEMENT_3D('',#248,#249,#250);
#252=PLANE('',#251);
#253=ADVANCED_FACE('',(#247),#252,.T.);
#254=CARTESIAN_POINT('',(3.58974993853099,8.75248985100066,0.740000000000000));
#255=DIRECTION('',(-1.00000000000000,0.00000000000000,0.00000000000000));
#256=VECTOR('',#255,1.00000000000000);
#257=LINE('',#254,#256);
#258=EDGE_CURVE('',#224,#25,#257,.T.);
#259=ORIENTED_EDGE('',*,*,#258,.T.);
#260=ORIENTED_EDGE('',*,*,#54,.F.);
#261=CARTESIAN_POINT('',(3.58974993853099,2.75248985100066,0.740000000000000));
#262=DIRECTION('',(-1.00000000000000,0.00000000000000,0.00000000000000));
#263=VECTOR('',#262,1.00000000000000);
#264=LINE('',#261,#263);
#265=EDGE_CURVE('',#232,#43,#264,.T.);
#266=ORIENTED_EDGE('',*,*,#265,.F.);
#267=ORIENTED_EDGE('',*,*,#237,.T.);
#268=EDGE_LOOP('',(#259,#260,#266,#267));
#269=FACE_OUTER_BOUND('',#268,.T.);
#270=CARTESIAN_POINT('',(3.54474993853099,2.75248985100066,0.740000000000000));
#271=DIRECTION('',(0.00000000000000,-0.00000000000000,1.00000000000000));
#272=DIRECTION('',(1.00000000000000,-0.00000000000000,-0.00000000000000));
#273=AXIS2_PLACEMENT_3D('',#270,#271,#272);
#274=PLANE('',#273);
#275=ADVANCED_FACE('',(#269),#274,.T.);
#276=ORIENTED_EDGE('',*,*,#32,.F.);
#277=ORIENTED_EDGE('',*,*,#258,.F.);
#278=ORIENTED_EDGE('',*,*,#229,.F.);
#279=ORIENTED_EDGE('',*,*,#197,.F.);
#280=ORIENTED_EDGE('',*,*,#165,.F.);
#281=ORIENTED_EDGE('',*,*,#134,.F.);
#282=ORIENTED_EDGE('',*,*,#103,.F.);
#283=ORIENTED_EDGE('',*,*,#71,.F.);
#284=EDGE_LOOP('',(#276,#277,#278,#279,#280,#281,#282,#283));
#285=FACE_OUTER_BOUND('',#284,.T.);
#286=CARTESIAN_POINT('',(3.56164068853099,8.75248985100066,0.740000000000000));
#287=DIRECTION('',(0.00000000000000,-1.00000000000000,0.00000000000000));
#288=DIRECTION('',(1.00000000000000,0.00000000000000,0.00000000000000));
#289=AXIS2_PLACEMENT_3D('',#286,#287,#288);
#290=PLANE('',#289);
#291=ADVANCED_FACE('',(#285),#290,.F.);
#292=ORIENTED_EDGE('',*,*,#265,.T.);
#293=ORIENTED_EDGE('',*,*,#48,.F.);
#294=ORIENTED_EDGE('',*,*,#86,.T.);
#295=ORIENTED_EDGE('',*,*,#117,.F.);
#296=ORIENTED_EDGE('',*,*,#148,.T.);
#297=ORIENTED_EDGE('',*,*,#179,.T.);
#298=ORIENTED_EDGE('',*,*,#212,.F.);
#299=ORIENTED_EDGE('',*,*,#243,.T.);
#300=EDGE_LOOP('',(#292,#293,#294,#295,#296,#297,#298,#299));
#301=FACE_OUTER_BOUND('',#300,.T.);
#302=CARTESIAN_POINT('',(3.56164068853099,2.75248985100066,0.740000000000000));
#303=DIRECTION('',(-0.00000000000000,-1.00000000000000,0.00000000000000));
#304=DIRECTION('',(1.00000000000000,-0.00000000000000,0.00000000000000));
#305=AXIS2_PLACEMENT_3D('',#302,#303,#304);
#306=PLANE('',#305);
#307=ADVANCED_FACE('',(#301),#306,.T.);
#308=CLOSED_SHELL('',(#63,#96,#127,#158,#189,#222,#253,#275,#291,#307));
#309=MANIFOLD_SOLID_BREP('',#308);
#310=COLOUR_RGB('',1.00000000000000,0.00000000000000,0.00000000000000);
#311=FILL_AREA_STYLE_COLOUR('',#310);
#312=FILL_AREA_STYLE('',(#311));
#313=SURFACE_STYLE_FILL_AREA(#312);
#314=SURFACE_SIDE_STYLE('',(#313));
#315=SURFACE_STYLE_USAGE(.BOTH.,#314);
#316=PRESENTATION_STYLE_ASSIGNMENT((#315));
#317=STYLED_ITEM('',(#316),#309);
#318=ADVANCED_BREP_SHAPE_REPRESENTATION('',(#309,#23),#18);
#319=PRODUCT('', '', ' ',(#2));
#320=PRODUCT_DEFINITION_FORMATION_WITH_SPECIFIED_SOURCE (' ', ' ', #319, .NOT_KNOWN.) ;
#321=PRODUCT_CATEGORY('part','') ;
#322=PRODUCT_RELATED_PRODUCT_CATEGORY('detail', ' ', (#319)) ;
#323=PRODUCT_CATEGORY_RELATIONSHIP(' ', ' ', #321, #322);
#324=PRODUCT_DEFINITION('', '', #320, #1);
#325=PRODUCT_DEFINITION_SHAPE('NONE', 'NONE', #324);
#326=SHAPE_DEFINITION_REPRESENTATION(#325, #318);
#327=PRESENTATION_LAYER_ASSIGNMENT('1','Unnamed [1]',(#309));
#328=MECHANICAL_DESIGN_GEOMETRIC_PRESENTATION_REPRESENTATION('',(#317), #18);
ENDSEC;
END-ISO-10303-21;
