ISO-10303-21;
HEADER;
FILE_DESCRIPTION((''),'2;1');
FILE_NAME('C:/Program Files/Kubotek/KeyCreatorPro.2021.SP0/STEP/SG1335.STP', '2021-02-15T18:23:27',(''), (''), 'KCM Version 2.0.6974.6974', 'KeyCreator Pro', '');
FILE_SCHEMA(('AUTOMOTIVE_DESIGN'));
ENDSEC;
DATA;
#1=PRODUCT_DEFINITION_CONTEXT('',#4,'design');
#2=PRODUCT_CONTEXT('',#4,'mechanical');
#3=APPLICATION_PROTOCOL_DEFINITION('International Standard','automotive_design',2001,#4);
#4=APPLICATION_CONTEXT('automotive design');
#10=DIMENSIONAL_EXPONENTS(1.0,0.0,0.0,0.0,0.0,0.0,0.0);
#11=DIMENSIONAL_EXPONENTS(0.0,0.0,0.0,0.0,0.0,0.0,0.0);
#12=(NAMED_UNIT(#10)LENGTH_UNIT()SI_UNIT(.MILLI.,.METRE.));
#13=(NAMED_UNIT(#11)PLANE_ANGLE_UNIT()SI_UNIT($,.RADIAN.));
#14=(NAMED_UNIT(#11)SOLID_ANGLE_UNIT()SI_UNIT($,.STERADIAN.));
#15=LENGTH_MEASURE_WITH_UNIT(LENGTH_MEASURE(25.4),#12);
#16= (CONVERSION_BASED_UNIT('INCH',#15)LENGTH_UNIT()NAMED_UNIT(#10));
#17=UNCERTAINTY_MEASURE_WITH_UNIT(LENGTH_MEASURE(1.0E-006),#16,'','');
#18=(GEOMETRIC_REPRESENTATION_CONTEXT(3)GLOBAL_UNCERTAINTY_ASSIGNED_CONTEXT((#17))GLOBAL_UNIT_ASSIGNED_CONTEXT((#16,#13,#14))REPRESENTATION_CONTEXT('NONE','WORKSPACE'));
#20=CARTESIAN_POINT('',(0.00000000000000,0.00000000000000,0.00000000000000));
#21=DIRECTION('',(0.00000000000000,0.00000000000000,1.00000000000000));
#22=DIRECTION('',(1.00000000000000,0.00000000000000,0.00000000000000));
#23=AXIS2_PLACEMENT_3D('',#20,#21,#22);
#24=CARTESIAN_POINT('',(0.00000000000000,6.50000000000000,0.499999999999999));
#25=VERTEX_POINT('',#24);
#26=CARTESIAN_POINT('',(0.00000000000000,6.50000000000000,-0.500000000000001));
#27=VERTEX_POINT('',#26);
#28=CARTESIAN_POINT('',(0.00000000000000,6.50000000000000,-0.500000000000000));
#29=DIRECTION('',(-0.00000000000000,-5.55111512312578E-17,-1.00000000000000));
#30=VECTOR('',#29,1.00000000000000);
#31=LINE('',#28,#30);
#32=EDGE_CURVE('',#25,#27,#31,.T.);
#33=ORIENTED_EDGE('',*,*,#32,.T.);
#34=CARTESIAN_POINT('',(0.00000000000000,0.500000000000000,-0.500000000000000));
#35=VERTEX_POINT('',#34);
#36=CARTESIAN_POINT('',(0.00000000000000,0.500000000000000,-0.500000000000000));
#37=DIRECTION('',(0.00000000000000,1.00000000000000,-9.25185853854297E-17));
#38=VECTOR('',#37,1.00000000000000);
#39=LINE('',#36,#38);
#40=EDGE_CURVE('',#35,#27,#39,.T.);
#41=ORIENTED_EDGE('',*,*,#40,.F.);
#42=CARTESIAN_POINT('',(0.00000000000000,0.500000000000000,0.500000000000000));
#43=VERTEX_POINT('',#42);
#44=CARTESIAN_POINT('',(0.00000000000000,0.500000000000000,-0.500000000000000));
#45=DIRECTION('',(0.00000000000000,5.55111512312578E-17,1.00000000000000));
#46=VECTOR('',#45,1.00000000000000);
#47=LINE('',#44,#46);
#48=EDGE_CURVE('',#35,#43,#47,.T.);
#49=ORIENTED_EDGE('',*,*,#48,.T.);
#50=CARTESIAN_POINT('',(0.00000000000000,0.500000000000000,0.500000000000000));
#51=DIRECTION('',(0.00000000000000,1.00000000000000,-9.25185853854297E-17));
#52=VECTOR('',#51,1.00000000000000);
#53=LINE('',#50,#52);
#54=EDGE_CURVE('',#43,#25,#53,.T.);
#55=ORIENTED_EDGE('',*,*,#54,.T.);
#56=EDGE_LOOP('',(#33,#41,#49,#55));
#57=FACE_OUTER_BOUND('',#56,.T.);
#58=CARTESIAN_POINT('',(0.00000000000000,0.500000000000000,0.00000000000000));
#59=DIRECTION('',(-1.00000000000000,0.00000000000000,0.00000000000000));
#60=DIRECTION('',(0.00000000000000,5.55111512312578E-17,1.00000000000000));
#61=AXIS2_PLACEMENT_3D('',#58,#59,#60);
#62=PLANE('',#61);
#63=ADVANCED_FACE('',(#57),#62,.T.);
#64=CARTESIAN_POINT('',(2.00000000000000,6.50000000000000,-0.500000000000001));
#65=VERTEX_POINT('',#64);
#66=CARTESIAN_POINT('',(2.00000000000000,6.50000000000000,-0.500000000000000));
#67=DIRECTION('',(1.00000000000000,0.00000000000000,0.00000000000000));
#68=VECTOR('',#67,1.00000000000000);
#69=LINE('',#66,#68);
#70=EDGE_CURVE('',#27,#65,#69,.T.);
#71=ORIENTED_EDGE('',*,*,#70,.T.);
#72=CARTESIAN_POINT('',(2.00000000000000,0.500000000000000,-0.500000000000000));
#73=VERTEX_POINT('',#72);
#74=CARTESIAN_POINT('',(2.00000000000000,0.500000000000000,-0.500000000000000));
#75=DIRECTION('',(0.00000000000000,1.00000000000000,-9.25185853854297E-17));
#76=VECTOR('',#75,1.00000000000000);
#77=LINE('',#74,#76);
#78=EDGE_CURVE('',#73,#65,#77,.T.);
#79=ORIENTED_EDGE('',*,*,#78,.F.);
#80=CARTESIAN_POINT('',(2.00000000000000,0.500000000000000,-0.500000000000000));
#81=DIRECTION('',(-1.00000000000000,0.00000000000000,0.00000000000000));
#82=VECTOR('',#81,1.00000000000000);
#83=LINE('',#80,#82);
#84=EDGE_CURVE('',#73,#35,#83,.T.);
#85=ORIENTED_EDGE('',*,*,#84,.T.);
#86=ORIENTED_EDGE('',*,*,#40,.T.);
#87=EDGE_LOOP('',(#71,#79,#85,#86));
#88=FACE_OUTER_BOUND('',#87,.T.);
#89=CARTESIAN_POINT('',(1.00000000000000,0.500000000000000,-0.500000000000000));
#90=DIRECTION('',(-0.00000000000000,-9.25185853854297E-17,-1.00000000000000));
#91=DIRECTION('',(-1.00000000000000,0.00000000000000,0.00000000000000));
#92=AXIS2_PLACEMENT_3D('',#89,#90,#91);
#93=PLANE('',#92);
#94=ADVANCED_FACE('',(#88),#93,.T.);
#95=CARTESIAN_POINT('',(2.00000000000000,6.50000000000000,-0.375000000000001));
#96=VERTEX_POINT('',#95);
#97=CARTESIAN_POINT('',(2.00000000000000,6.50000000000000,-0.500000000000000));
#98=DIRECTION('',(0.00000000000000,0.00000000000000,1.00000000000000));
#99=VECTOR('',#98,1.00000000000000);
#100=LINE('',#97,#99);
#101=EDGE_CURVE('',#65,#96,#100,.T.);
#102=ORIENTED_EDGE('',*,*,#101,.T.);
#103=CARTESIAN_POINT('',(2.00000000000000,0.500000000000000,-0.375000000000000));
#104=VERTEX_POINT('',#103);
#105=CARTESIAN_POINT('',(2.00000000000000,0.500000000000000,-0.375000000000000));
#106=DIRECTION('',(0.00000000000000,1.00000000000000,-9.25185853854297E-17));
#107=VECTOR('',#106,1.00000000000000);
#108=LINE('',#105,#107);
#109=EDGE_CURVE('',#104,#96,#108,.T.);
#110=ORIENTED_EDGE('',*,*,#109,.F.);
#111=CARTESIAN_POINT('',(2.00000000000000,0.500000000000000,-0.500000000000000));
#112=DIRECTION('',(0.00000000000000,0.00000000000000,1.00000000000000));
#113=VECTOR('',#112,1.00000000000000);
#114=LINE('',#111,#113);
#115=EDGE_CURVE('',#73,#104,#114,.T.);
#116=ORIENTED_EDGE('',*,*,#115,.F.);
#117=ORIENTED_EDGE('',*,*,#78,.T.);
#118=EDGE_LOOP('',(#102,#110,#116,#117));
#119=FACE_OUTER_BOUND('',#118,.T.);
#120=CARTESIAN_POINT('',(2.00000000000000,0.500000000000000,-0.437500000000000));
#121=DIRECTION('',(1.00000000000000,-0.00000000000000,0.00000000000000));
#122=DIRECTION('',(-0.00000000000000,-0.00000000000000,-1.00000000000000));
#123=AXIS2_PLACEMENT_3D('',#120,#121,#122);
#124=PLANE('',#123);
#125=ADVANCED_FACE('',(#119),#124,.T.);
#126=CARTESIAN_POINT('',(0.125000000000000,6.50000000000000,-0.375000000000001));
#127=VERTEX_POINT('',#126);
#128=CARTESIAN_POINT('',(2.00000000000000,6.50000000000000,-0.375000000000000));
#129=DIRECTION('',(-1.00000000000000,0.00000000000000,0.00000000000000));
#130=VECTOR('',#129,1.00000000000000);
#131=LINE('',#128,#130);
#132=EDGE_CURVE('',#96,#127,#131,.T.);
#133=ORIENTED_EDGE('',*,*,#132,.T.);
#134=CARTESIAN_POINT('',(0.125000000000000,0.500000000000000,-0.375000000000000));
#135=VERTEX_POINT('',#134);
#136=CARTESIAN_POINT('',(0.125000000000000,0.500000000000000,-0.375000000000000));
#137=DIRECTION('',(0.00000000000000,1.00000000000000,-9.25185853854297E-17));
#138=VECTOR('',#137,1.00000000000000);
#139=LINE('',#136,#138);
#140=EDGE_CURVE('',#135,#127,#139,.T.);
#141=ORIENTED_EDGE('',*,*,#140,.F.);
#142=CARTESIAN_POINT('',(2.00000000000000,0.500000000000000,-0.375000000000000));
#143=DIRECTION('',(-1.00000000000000,0.00000000000000,0.00000000000000));
#144=VECTOR('',#143,1.00000000000000);
#145=LINE('',#142,#144);
#146=EDGE_CURVE('',#104,#135,#145,.T.);
#147=ORIENTED_EDGE('',*,*,#146,.F.);
#148=ORIENTED_EDGE('',*,*,#109,.T.);
#149=EDGE_LOOP('',(#133,#141,#147,#148));
#150=FACE_OUTER_BOUND('',#149,.T.);
#151=CARTESIAN_POINT('',(1.06250000000000,0.500000000000000,-0.375000000000000));
#152=DIRECTION('',(0.00000000000000,9.25185853854297E-17,1.00000000000000));
#153=DIRECTION('',(1.00000000000000,-0.00000000000000,-0.00000000000000));
#154=AXIS2_PLACEMENT_3D('',#151,#152,#153);
#155=PLANE('',#154);
#156=ADVANCED_FACE('',(#150),#155,.T.);
#157=CARTESIAN_POINT('',(0.125000000000000,6.50000000000000,0.499999999999999));
#158=VERTEX_POINT('',#157);
#159=CARTESIAN_POINT('',(0.125000000000000,6.50000000000000,-0.375000000000000));
#160=DIRECTION('',(0.00000000000000,6.34413156928661E-17,1.00000000000000));
#161=VECTOR('',#160,1.00000000000000);
#162=LINE('',#159,#161);
#163=EDGE_CURVE('',#127,#158,#162,.T.);
#164=ORIENTED_EDGE('',*,*,#163,.T.);
#165=CARTESIAN_POINT('',(0.125000000000000,0.500000000000000,0.500000000000000));
#166=VERTEX_POINT('',#165);
#167=CARTESIAN_POINT('',(0.125000000000000,0.500000000000000,0.500000000000000));
#168=DIRECTION('',(0.00000000000000,1.00000000000000,-9.25185853854297E-17));
#169=VECTOR('',#168,1.00000000000000);
#170=LINE('',#167,#169);
#171=EDGE_CURVE('',#166,#158,#170,.T.);
#172=ORIENTED_EDGE('',*,*,#171,.F.);
#173=CARTESIAN_POINT('',(0.125000000000000,0.500000000000000,-0.375000000000000));
#174=DIRECTION('',(0.00000000000000,6.34413156928661E-17,1.00000000000000));
#175=VECTOR('',#174,1.00000000000000);
#176=LINE('',#173,#175);
#177=EDGE_CURVE('',#135,#166,#176,.T.);
#178=ORIENTED_EDGE('',*,*,#177,.F.);
#179=ORIENTED_EDGE('',*,*,#140,.T.);
#180=EDGE_LOOP('',(#164,#172,#178,#179));
#181=FACE_OUTER_BOUND('',#180,.T.);
#182=CARTESIAN_POINT('',(0.125000000000000,0.500000000000000,0.0625000000000000));
#183=DIRECTION('',(1.00000000000000,-0.00000000000000,0.00000000000000));
#184=DIRECTION('',(-0.00000000000000,-6.34413156928661E-17,-1.00000000000000));
#185=AXIS2_PLACEMENT_3D('',#182,#183,#184);
#186=PLANE('',#185);
#187=ADVANCED_FACE('',(#181),#186,.T.);
#188=CARTESIAN_POINT('',(0.125000000000000,6.50000000000000,0.500000000000000));
#189=DIRECTION('',(-1.00000000000000,0.00000000000000,0.00000000000000));
#190=VECTOR('',#189,1.00000000000000);
#191=LINE('',#188,#190);
#192=EDGE_CURVE('',#158,#25,#191,.T.);
#193=ORIENTED_EDGE('',*,*,#192,.T.);
#194=ORIENTED_EDGE('',*,*,#54,.F.);
#195=CARTESIAN_POINT('',(0.125000000000000,0.500000000000000,0.500000000000000));
#196=DIRECTION('',(-1.00000000000000,0.00000000000000,0.00000000000000));
#197=VECTOR('',#196,1.00000000000000);
#198=LINE('',#195,#197);
#199=EDGE_CURVE('',#166,#43,#198,.T.);
#200=ORIENTED_EDGE('',*,*,#199,.F.);
#201=ORIENTED_EDGE('',*,*,#171,.T.);
#202=EDGE_LOOP('',(#193,#194,#200,#201));
#203=FACE_OUTER_BOUND('',#202,.T.);
#204=CARTESIAN_POINT('',(0.0625000000000000,0.500000000000000,0.500000000000000));
#205=DIRECTION('',(0.00000000000000,9.25185853854297E-17,1.00000000000000));
#206=DIRECTION('',(1.00000000000000,-0.00000000000000,-0.00000000000000));
#207=AXIS2_PLACEMENT_3D('',#204,#205,#206);
#208=PLANE('',#207);
#209=ADVANCED_FACE('',(#203),#208,.T.);
#210=ORIENTED_EDGE('',*,*,#32,.F.);
#211=ORIENTED_EDGE('',*,*,#192,.F.);
#212=ORIENTED_EDGE('',*,*,#163,.F.);
#213=ORIENTED_EDGE('',*,*,#132,.F.);
#214=ORIENTED_EDGE('',*,*,#101,.F.);
#215=ORIENTED_EDGE('',*,*,#70,.F.);
#216=EDGE_LOOP('',(#210,#211,#212,#213,#214,#215));
#217=FACE_OUTER_BOUND('',#216,.T.);
#218=CARTESIAN_POINT('',(0.0859593750000000,6.50000000000000,0.500000000000000));
#219=DIRECTION('',(0.00000000000000,1.00000000000000,-9.22547943328841E-17));
#220=DIRECTION('',(-1.00000000000000,0.00000000000000,0.00000000000000));
#221=AXIS2_PLACEMENT_3D('',#218,#219,#220);
#222=PLANE('',#221);
#223=ADVANCED_FACE('',(#217),#222,.T.);
#224=ORIENTED_EDGE('',*,*,#199,.T.);
#225=ORIENTED_EDGE('',*,*,#48,.F.);
#226=ORIENTED_EDGE('',*,*,#84,.F.);
#227=ORIENTED_EDGE('',*,*,#115,.T.);
#228=ORIENTED_EDGE('',*,*,#146,.T.);
#229=ORIENTED_EDGE('',*,*,#177,.T.);
#230=EDGE_LOOP('',(#224,#225,#226,#227,#228,#229));
#231=FACE_OUTER_BOUND('',#230,.T.);
#232=CARTESIAN_POINT('',(0.0859593750000000,0.500000000000000,0.500000000000000));
#233=DIRECTION('',(-0.00000000000000,1.00000000000000,-9.22547943328841E-17));
#234=DIRECTION('',(-1.00000000000000,-0.00000000000000,0.00000000000000));
#235=AXIS2_PLACEMENT_3D('',#232,#233,#234);
#236=PLANE('',#235);
#237=ADVANCED_FACE('',(#231),#236,.F.);
#238=CLOSED_SHELL('',(#63,#94,#125,#156,#187,#209,#223,#237));
#239=MANIFOLD_SOLID_BREP('',#238);
#240=COLOUR_RGB('',1.00000000000000,0.00000000000000,0.00000000000000);
#241=FILL_AREA_STYLE_COLOUR('',#240);
#242=FILL_AREA_STYLE('',(#241));
#243=SURFACE_STYLE_FILL_AREA(#242);
#244=SURFACE_SIDE_STYLE('',(#243));
#245=SURFACE_STYLE_USAGE(.BOTH.,#244);
#246=PRESENTATION_STYLE_ASSIGNMENT((#245));
#247=STYLED_ITEM('',(#246),#239);
#248=ADVANCED_BREP_SHAPE_REPRESENTATION('',(#239,#23),#18);
#249=PRODUCT('', '', ' ',(#2));
#250=PRODUCT_DEFINITION_FORMATION_WITH_SPECIFIED_SOURCE (' ', ' ', #249, .NOT_KNOWN.) ;
#251=PRODUCT_CATEGORY('part','') ;
#252=PRODUCT_RELATED_PRODUCT_CATEGORY('detail', ' ', (#249)) ;
#253=PRODUCT_CATEGORY_RELATIONSHIP(' ', ' ', #251, #252);
#254=PRODUCT_DEFINITION('', '', #250, #1);
#255=PRODUCT_DEFINITION_SHAPE('NONE', 'NONE', #254);
#256=SHAPE_DEFINITION_REPRESENTATION(#255, #248);
#257=PRESENTATION_LAYER_ASSIGNMENT('1','Unnamed [1]',(#239));
#258=MECHANICAL_DESIGN_GEOMETRIC_PRESENTATION_REPRESENTATION('',(#247), #18);
ENDSEC;
END-ISO-10303-21;
