ISO-10303-21;
HEADER;
FILE_DESCRIPTION((''),'2;1');
FILE_NAME('C:/Program Files/Kubotek/KeyCreatorPro.2021.SP0/STEP/SG1311.STP', '2021-03-08T21:10:25',(''), (''), 'KCM Version 2.0.6974.6974', 'KeyCreator Pro', '');
FILE_SCHEMA(('AUTOMOTIVE_DESIGN'));
ENDSEC;
DATA;
#1=PRODUCT_DEFINITION_CONTEXT('',#4,'design');
#2=PRODUCT_CONTEXT('',#4,'mechanical');
#3=APPLICATION_PROTOCOL_DEFINITION('International Standard','automotive_design',2001,#4);
#4=APPLICATION_CONTEXT('automotive design');
#10=DIMENSIONAL_EXPONENTS(1.0,0.0,0.0,0.0,0.0,0.0,0.0);
#11=DIMENSIONAL_EXPONENTS(0.0,0.0,0.0,0.0,0.0,0.0,0.0);
#12=(NAMED_UNIT(#10)LENGTH_UNIT()SI_UNIT(.MILLI.,.METRE.));
#13=(NAMED_UNIT(#11)PLANE_ANGLE_UNIT()SI_UNIT($,.RADIAN.));
#14=(NAMED_UNIT(#11)SOLID_ANGLE_UNIT()SI_UNIT($,.STERADIAN.));
#15=LENGTH_MEASURE_WITH_UNIT(LENGTH_MEASURE(25.4),#12);
#16= (CONVERSION_BASED_UNIT('INCH',#15)LENGTH_UNIT()NAMED_UNIT(#10));
#17=UNCERTAINTY_MEASURE_WITH_UNIT(LENGTH_MEASURE(1.0E-006),#16,'','');
#18=(GEOMETRIC_REPRESENTATION_CONTEXT(3)GLOBAL_UNCERTAINTY_ASSIGNED_CONTEXT((#17))GLOBAL_UNIT_ASSIGNED_CONTEXT((#16,#13,#14))REPRESENTATION_CONTEXT('NONE','WORKSPACE'));
#20=CARTESIAN_POINT('',(0.00000000000000,0.00000000000000,0.00000000000000));
#21=DIRECTION('',(0.00000000000000,0.00000000000000,1.00000000000000));
#22=DIRECTION('',(1.00000000000000,0.00000000000000,0.00000000000000));
#23=AXIS2_PLACEMENT_3D('',#20,#21,#22);
#24=CARTESIAN_POINT('',(1.40000000000000,3.00000000000000,0.0299999999999998));
#25=VERTEX_POINT('',#24);
#26=CARTESIAN_POINT('',(0.121346610995116,3.00000000000000,0.0299999999999998));
#27=VERTEX_POINT('',#26);
#28=CARTESIAN_POINT('',(0.121346610995116,3.00000000000000,0.0299999999999998));
#29=DIRECTION('',(-1.00000000000000,-0.00000000000000,-0.00000000000000));
#30=VECTOR('',#29,1.00000000000000);
#31=LINE('',#28,#30);
#32=EDGE_CURVE('',#25,#27,#31,.T.);
#33=ORIENTED_EDGE('',*,*,#32,.T.);
#34=CARTESIAN_POINT('',(0.121346610995116,-3.00000000000000,0.0300000000000002));
#35=VERTEX_POINT('',#34);
#36=CARTESIAN_POINT('',(0.121346610995116,1.83697019872103E-18,0.0300000000000000));
#37=DIRECTION('',(0.00000000000000,1.00000000000000,-6.12935628178472E-17));
#38=VECTOR('',#37,1.00000000000000);
#39=LINE('',#36,#38);
#40=EDGE_CURVE('',#35,#27,#39,.T.);
#41=ORIENTED_EDGE('',*,*,#40,.F.);
#42=CARTESIAN_POINT('',(1.40000000000000,-3.00000000000000,0.0300000000000002));
#43=VERTEX_POINT('',#42);
#44=CARTESIAN_POINT('',(0.121346610995116,-3.00000000000000,0.0300000000000002));
#45=DIRECTION('',(1.00000000000000,0.00000000000000,0.00000000000000));
#46=VECTOR('',#45,1.00000000000000);
#47=LINE('',#44,#46);
#48=EDGE_CURVE('',#35,#43,#47,.T.);
#49=ORIENTED_EDGE('',*,*,#48,.T.);
#50=CARTESIAN_POINT('',(1.40000000000000,1.83697019872103E-18,0.0300000000000000));
#51=DIRECTION('',(0.00000000000000,1.00000000000000,-6.12935628178472E-17));
#52=VECTOR('',#51,1.00000000000000);
#53=LINE('',#50,#52);
#54=EDGE_CURVE('',#43,#25,#53,.T.);
#55=ORIENTED_EDGE('',*,*,#54,.T.);
#56=EDGE_LOOP('',(#33,#41,#49,#55));
#57=FACE_OUTER_BOUND('',#56,.T.);
#58=CARTESIAN_POINT('',(0.760673305497558,1.83697019872103E-18,0.0300000000000000));
#59=DIRECTION('',(-0.00000000000000,6.12935628178472E-17,1.00000000000000));
#60=DIRECTION('',(1.00000000000000,0.00000000000000,0.00000000000000));
#61=AXIS2_PLACEMENT_3D('',#58,#59,#60);
#62=PLANE('',#61);
#63=ADVANCED_FACE('',(#57),#62,.T.);
#64=CARTESIAN_POINT('',(0.121346610995116,3.00000000000000,-0.0300000000000002));
#65=VERTEX_POINT('',#64);
#66=CARTESIAN_POINT('',(0.00000000000000,3.00000000000000,-1.83880688453542E-16));
#67=DIRECTION('',(0.00000000000000,-1.00000000000000,6.12323399573677E-17));
#68=DIRECTION('',(1.00000000000000,0.00000000000000,0.00000000000000));
#69=AXIS2_PLACEMENT_3D('',#66,#67,#68);
#70=CIRCLE('',#69,0.125000000000000);
#71=EDGE_CURVE('',#27,#65,#70,.T.);
#72=ORIENTED_EDGE('',*,*,#71,.T.);
#73=CARTESIAN_POINT('',(0.121346610995116,-3.00000000000000,-0.0299999999999998));
#74=VERTEX_POINT('',#73);
#75=CARTESIAN_POINT('',(0.121346610995116,-1.83697019872103E-18,-0.0300000000000000));
#76=DIRECTION('',(0.00000000000000,-1.00000000000000,6.12935628178472E-17));
#77=VECTOR('',#76,1.00000000000000);
#78=LINE('',#75,#77);
#79=EDGE_CURVE('',#65,#74,#78,.T.);
#80=ORIENTED_EDGE('',*,*,#79,.T.);
#81=CARTESIAN_POINT('',(0.00000000000000,-3.00000000000000,1.83880688453542E-16));
#82=DIRECTION('',(0.00000000000000,1.00000000000000,-6.12323399573677E-17));
#83=DIRECTION('',(1.00000000000000,0.00000000000000,0.00000000000000));
#84=AXIS2_PLACEMENT_3D('',#81,#82,#83);
#85=CIRCLE('',#84,0.125000000000000);
#86=EDGE_CURVE('',#74,#35,#85,.T.);
#87=ORIENTED_EDGE('',*,*,#86,.T.);
#88=ORIENTED_EDGE('',*,*,#40,.T.);
#89=EDGE_LOOP('',(#72,#80,#87,#88));
#90=FACE_OUTER_BOUND('',#89,.T.);
#91=CARTESIAN_POINT('',(0.00000000000000,0.00000000000000,0.00000000000000));
#92=DIRECTION('',(0.00000000000000,1.00000000000000,-6.12935628178472E-17));
#93=DIRECTION('',(1.00000000000000,0.00000000000000,0.00000000000000));
#94=AXIS2_PLACEMENT_3D('',#91,#92,#93);
#95=CYLINDRICAL_SURFACE('',#94,0.125000000000000);
#96=ADVANCED_FACE('',(#90),#95,.T.);
#97=CARTESIAN_POINT('',(1.40000000000000,3.00000000000000,-0.0300000000000002));
#98=VERTEX_POINT('',#97);
#99=CARTESIAN_POINT('',(0.121346610995116,3.00000000000000,-0.0300000000000002));
#100=DIRECTION('',(1.00000000000000,0.00000000000000,0.00000000000000));
#101=VECTOR('',#100,1.00000000000000);
#102=LINE('',#99,#101);
#103=EDGE_CURVE('',#65,#98,#102,.T.);
#104=ORIENTED_EDGE('',*,*,#103,.T.);
#105=CARTESIAN_POINT('',(1.40000000000000,-3.00000000000000,-0.0299999999999998));
#106=VERTEX_POINT('',#105);
#107=CARTESIAN_POINT('',(1.40000000000000,-1.83697019872103E-18,-0.0300000000000000));
#108=DIRECTION('',(0.00000000000000,-1.00000000000000,6.12935628178472E-17));
#109=VECTOR('',#108,1.00000000000000);
#110=LINE('',#107,#109);
#111=EDGE_CURVE('',#98,#106,#110,.T.);
#112=ORIENTED_EDGE('',*,*,#111,.T.);
#113=CARTESIAN_POINT('',(0.121346610995116,-3.00000000000000,-0.0299999999999998));
#114=DIRECTION('',(-1.00000000000000,-0.00000000000000,-0.00000000000000));
#115=VECTOR('',#114,1.00000000000000);
#116=LINE('',#113,#115);
#117=EDGE_CURVE('',#106,#74,#116,.T.);
#118=ORIENTED_EDGE('',*,*,#117,.T.);
#119=ORIENTED_EDGE('',*,*,#79,.F.);
#120=EDGE_LOOP('',(#104,#112,#118,#119));
#121=FACE_OUTER_BOUND('',#120,.T.);
#122=CARTESIAN_POINT('',(0.760673305497558,-1.83697019872103E-18,-0.0300000000000000));
#123=DIRECTION('',(0.00000000000000,-6.12935628178472E-17,-1.00000000000000));
#124=DIRECTION('',(-1.00000000000000,-0.00000000000000,-0.00000000000000));
#125=AXIS2_PLACEMENT_3D('',#122,#123,#124);
#126=PLANE('',#125);
#127=ADVANCED_FACE('',(#121),#126,.T.);
#128=CARTESIAN_POINT('',(1.40000000000000,3.00000000000000,-0.0300000000000002));
#129=DIRECTION('',(0.00000000000000,6.12323399573677E-17,1.00000000000000));
#130=VECTOR('',#129,1.00000000000000);
#131=LINE('',#128,#130);
#132=EDGE_CURVE('',#98,#25,#131,.T.);
#133=ORIENTED_EDGE('',*,*,#132,.T.);
#134=ORIENTED_EDGE('',*,*,#54,.F.);
#135=CARTESIAN_POINT('',(1.40000000000000,-3.00000000000000,-0.0299999999999998));
#136=DIRECTION('',(-0.00000000000000,-6.12323399573677E-17,-1.00000000000000));
#137=VECTOR('',#136,1.00000000000000);
#138=LINE('',#135,#137);
#139=EDGE_CURVE('',#43,#106,#138,.T.);
#140=ORIENTED_EDGE('',*,*,#139,.T.);
#141=ORIENTED_EDGE('',*,*,#111,.F.);
#142=EDGE_LOOP('',(#133,#134,#140,#141));
#143=FACE_OUTER_BOUND('',#142,.T.);
#144=CARTESIAN_POINT('',(1.40000000000000,0.00000000000000,0.00000000000000));
#145=DIRECTION('',(1.00000000000000,-0.00000000000000,0.00000000000000));
#146=DIRECTION('',(-0.00000000000000,-6.12323399573677E-17,-1.00000000000000));
#147=AXIS2_PLACEMENT_3D('',#144,#145,#146);
#148=PLANE('',#147);
#149=ADVANCED_FACE('',(#143),#148,.T.);
#150=ORIENTED_EDGE('',*,*,#32,.F.);
#151=ORIENTED_EDGE('',*,*,#132,.F.);
#152=ORIENTED_EDGE('',*,*,#103,.F.);
#153=ORIENTED_EDGE('',*,*,#71,.F.);
#154=EDGE_LOOP('',(#150,#151,#152,#153));
#155=FACE_OUTER_BOUND('',#154,.T.);
#156=CARTESIAN_POINT('',(1.40000000000000,3.00000000000000,-0.0112605000000002));
#157=DIRECTION('',(4.38060819350155E-34,1.00000000000000,-6.12323399573677E-17));
#158=DIRECTION('',(-1.00000000000000,4.38060819350155E-34,0.00000000000000));
#159=AXIS2_PLACEMENT_3D('',#156,#157,#158);
#160=PLANE('',#159);
#161=ADVANCED_FACE('',(#155),#160,.T.);
#162=ORIENTED_EDGE('',*,*,#117,.F.);
#163=ORIENTED_EDGE('',*,*,#139,.F.);
#164=ORIENTED_EDGE('',*,*,#48,.F.);
#165=ORIENTED_EDGE('',*,*,#86,.F.);
#166=EDGE_LOOP('',(#162,#163,#164,#165));
#167=FACE_OUTER_BOUND('',#166,.T.);
#168=CARTESIAN_POINT('',(1.40000000000000,-3.00000000000000,-0.0112604999999998));
#169=DIRECTION('',(4.38060819350155E-34,1.00000000000000,-6.12323399573677E-17));
#170=DIRECTION('',(-1.00000000000000,4.38060819350155E-34,0.00000000000000));
#171=AXIS2_PLACEMENT_3D('',#168,#169,#170);
#172=PLANE('',#171);
#173=ADVANCED_FACE('',(#167),#172,.F.);
#174=CLOSED_SHELL('',(#63,#96,#127,#149,#161,#173));
#175=MANIFOLD_SOLID_BREP('',#174);
#176=COLOUR_RGB('',1.00000000000000,0.00000000000000,0.00000000000000);
#177=FILL_AREA_STYLE_COLOUR('',#176);
#178=FILL_AREA_STYLE('',(#177));
#179=SURFACE_STYLE_FILL_AREA(#178);
#180=SURFACE_SIDE_STYLE('',(#179));
#181=SURFACE_STYLE_USAGE(.BOTH.,#180);
#182=PRESENTATION_STYLE_ASSIGNMENT((#181));
#183=STYLED_ITEM('',(#182),#175);
#184=ADVANCED_BREP_SHAPE_REPRESENTATION('',(#175,#23),#18);
#185=PRODUCT('', '', ' ',(#2));
#186=PRODUCT_DEFINITION_FORMATION_WITH_SPECIFIED_SOURCE (' ', ' ', #185, .NOT_KNOWN.) ;
#187=PRODUCT_CATEGORY('part','') ;
#188=PRODUCT_RELATED_PRODUCT_CATEGORY('detail', ' ', (#185)) ;
#189=PRODUCT_CATEGORY_RELATIONSHIP(' ', ' ', #187, #188);
#190=PRODUCT_DEFINITION('', '', #186, #1);
#191=PRODUCT_DEFINITION_SHAPE('NONE', 'NONE', #190);
#192=SHAPE_DEFINITION_REPRESENTATION(#191, #184);
#193=PRESENTATION_LAYER_ASSIGNMENT('1','Unnamed [1]',(#175));
#194=MECHANICAL_DESIGN_GEOMETRIC_PRESENTATION_REPRESENTATION('',(#183), #18);
ENDSEC;
END-ISO-10303-21;
