ISO-10303-21;
HEADER;
FILE_DESCRIPTION((''),'2;1');
FILE_NAME('C:/Program Files/Kubotek/KeyCreatorPro.2021.SP0/STEP/SG1309.STP', '2021-02-11T15:07:05',(''), (''), 'KCM Version 2.0.6974.6974', 'KeyCreator Pro', '');
FILE_SCHEMA(('AUTOMOTIVE_DESIGN'));
ENDSEC;
DATA;
#1=PRODUCT_DEFINITION_CONTEXT('',#4,'design');
#2=PRODUCT_CONTEXT('',#4,'mechanical');
#3=APPLICATION_PROTOCOL_DEFINITION('International Standard','automotive_design',2001,#4);
#4=APPLICATION_CONTEXT('automotive design');
#10=DIMENSIONAL_EXPONENTS(1.0,0.0,0.0,0.0,0.0,0.0,0.0);
#11=DIMENSIONAL_EXPONENTS(0.0,0.0,0.0,0.0,0.0,0.0,0.0);
#12=(NAMED_UNIT(#10)LENGTH_UNIT()SI_UNIT(.MILLI.,.METRE.));
#13=(NAMED_UNIT(#11)PLANE_ANGLE_UNIT()SI_UNIT($,.RADIAN.));
#14=(NAMED_UNIT(#11)SOLID_ANGLE_UNIT()SI_UNIT($,.STERADIAN.));
#15=LENGTH_MEASURE_WITH_UNIT(LENGTH_MEASURE(25.4),#12);
#16= (CONVERSION_BASED_UNIT('INCH',#15)LENGTH_UNIT()NAMED_UNIT(#10));
#17=UNCERTAINTY_MEASURE_WITH_UNIT(LENGTH_MEASURE(1.0E-006),#16,'','');
#18=(GEOMETRIC_REPRESENTATION_CONTEXT(3)GLOBAL_UNCERTAINTY_ASSIGNED_CONTEXT((#17))GLOBAL_UNIT_ASSIGNED_CONTEXT((#16,#13,#14))REPRESENTATION_CONTEXT('NONE','WORKSPACE'));
#20=CARTESIAN_POINT('',(0.00000000000000,0.00000000000000,0.00000000000000));
#21=DIRECTION('',(0.00000000000000,0.00000000000000,1.00000000000000));
#22=DIRECTION('',(1.00000000000000,0.00000000000000,0.00000000000000));
#23=AXIS2_PLACEMENT_3D('',#20,#21,#22);
#24=CARTESIAN_POINT('',(6.01268900215033,9.73082994517180,0.392499999999995));
#25=VERTEX_POINT('',#24);
#26=CARTESIAN_POINT('',(6.01268900215033,9.73082994517180,-0.422500000000005));
#27=VERTEX_POINT('',#26);
#28=CARTESIAN_POINT('',(6.01268900215033,9.73082994517180,-0.422500000000005));
#29=DIRECTION('',(-0.00000000000000,-5.44894736012346E-16,-1.00000000000000));
#30=VECTOR('',#29,1.00000000000000);
#31=LINE('',#28,#30);
#32=EDGE_CURVE('',#25,#27,#31,.T.);
#33=ORIENTED_EDGE('',*,*,#32,.T.);
#34=CARTESIAN_POINT('',(6.01268900215033,3.73082994517179,-0.422500000000000));
#35=VERTEX_POINT('',#34);
#36=CARTESIAN_POINT('',(6.01268900215033,3.73082994517179,-0.422500000000000));
#37=DIRECTION('',(0.00000000000000,1.00000000000000,-8.04911692853238E-16));
#38=VECTOR('',#37,1.00000000000000);
#39=LINE('',#36,#38);
#40=EDGE_CURVE('',#35,#27,#39,.T.);
#41=ORIENTED_EDGE('',*,*,#40,.F.);
#42=CARTESIAN_POINT('',(6.01268900215033,3.73082994517179,0.392500000000000));
#43=VERTEX_POINT('',#42);
#44=CARTESIAN_POINT('',(6.01268900215033,3.73082994517179,-0.422500000000000));
#45=DIRECTION('',(0.00000000000000,5.44894736012346E-16,1.00000000000000));
#46=VECTOR('',#45,1.00000000000000);
#47=LINE('',#44,#46);
#48=EDGE_CURVE('',#35,#43,#47,.T.);
#49=ORIENTED_EDGE('',*,*,#48,.T.);
#50=CARTESIAN_POINT('',(6.01268900215033,3.73082994517179,0.392500000000000));
#51=DIRECTION('',(0.00000000000000,1.00000000000000,-8.04911692853238E-16));
#52=VECTOR('',#51,1.00000000000000);
#53=LINE('',#50,#52);
#54=EDGE_CURVE('',#43,#25,#53,.T.);
#55=ORIENTED_EDGE('',*,*,#54,.T.);
#56=EDGE_LOOP('',(#33,#41,#49,#55));
#57=FACE_OUTER_BOUND('',#56,.T.);
#58=CARTESIAN_POINT('',(6.01268900215033,3.73082994517179,-0.0150000000000001));
#59=DIRECTION('',(-1.00000000000000,0.00000000000000,0.00000000000000));
#60=DIRECTION('',(0.00000000000000,5.44894736012346E-16,1.00000000000000));
#61=AXIS2_PLACEMENT_3D('',#58,#59,#60);
#62=PLANE('',#61);
#63=ADVANCED_FACE('',(#57),#62,.T.);
#64=CARTESIAN_POINT('',(6.07268900215032,9.73082994517180,-0.422500000000005));
#65=VERTEX_POINT('',#64);
#66=CARTESIAN_POINT('',(6.01268900215033,9.73082994517180,-0.422500000000005));
#67=DIRECTION('',(1.00000000000000,0.00000000000000,0.00000000000000));
#68=VECTOR('',#67,1.00000000000000);
#69=LINE('',#66,#68);
#70=EDGE_CURVE('',#27,#65,#69,.T.);
#71=ORIENTED_EDGE('',*,*,#70,.T.);
#72=CARTESIAN_POINT('',(6.07268900215032,3.73082994517179,-0.422500000000000));
#73=VERTEX_POINT('',#72);
#74=CARTESIAN_POINT('',(6.07268900215032,3.73082994517179,-0.422500000000000));
#75=DIRECTION('',(0.00000000000000,1.00000000000000,-8.04911692853238E-16));
#76=VECTOR('',#75,1.00000000000000);
#77=LINE('',#74,#76);
#78=EDGE_CURVE('',#73,#65,#77,.T.);
#79=ORIENTED_EDGE('',*,*,#78,.F.);
#80=CARTESIAN_POINT('',(6.01268900215033,3.73082994517179,-0.422500000000000));
#81=DIRECTION('',(1.00000000000000,0.00000000000000,0.00000000000000));
#82=VECTOR('',#81,1.00000000000000);
#83=LINE('',#80,#82);
#84=EDGE_CURVE('',#35,#73,#83,.T.);
#85=ORIENTED_EDGE('',*,*,#84,.F.);
#86=ORIENTED_EDGE('',*,*,#40,.T.);
#87=EDGE_LOOP('',(#71,#79,#85,#86));
#88=FACE_OUTER_BOUND('',#87,.T.);
#89=CARTESIAN_POINT('',(6.04268900215033,3.73082994517179,-0.422500000000000));
#90=DIRECTION('',(0.00000000000000,-8.04911692853238E-16,-1.00000000000000));
#91=DIRECTION('',(-1.00000000000000,-0.00000000000000,-0.00000000000000));
#92=AXIS2_PLACEMENT_3D('',#89,#90,#91);
#93=PLANE('',#92);
#94=ADVANCED_FACE('',(#88),#93,.T.);
#95=CARTESIAN_POINT('',(6.07268900215032,9.73082994517180,0.422499999999995));
#96=VERTEX_POINT('',#95);
#97=CARTESIAN_POINT('',(6.07268900215032,9.73082994517180,-0.422500000000005));
#98=DIRECTION('',(0.00000000000000,5.25549360769304E-16,1.00000000000000));
#99=VECTOR('',#98,1.00000000000000);
#100=LINE('',#97,#99);
#101=EDGE_CURVE('',#65,#96,#100,.T.);
#102=ORIENTED_EDGE('',*,*,#101,.T.);
#103=CARTESIAN_POINT('',(6.07268900215032,3.73082994517179,0.422500000000000));
#104=VERTEX_POINT('',#103);
#105=CARTESIAN_POINT('',(6.07268900215032,3.73082994517179,0.422500000000000));
#106=DIRECTION('',(0.00000000000000,1.00000000000000,-8.04911692853238E-16));
#107=VECTOR('',#106,1.00000000000000);
#108=LINE('',#105,#107);
#109=EDGE_CURVE('',#104,#96,#108,.T.);
#110=ORIENTED_EDGE('',*,*,#109,.F.);
#111=CARTESIAN_POINT('',(6.07268900215032,3.73082994517179,-0.422500000000000));
#112=DIRECTION('',(0.00000000000000,5.25549360769304E-16,1.00000000000000));
#113=VECTOR('',#112,1.00000000000000);
#114=LINE('',#111,#113);
#115=EDGE_CURVE('',#73,#104,#114,.T.);
#116=ORIENTED_EDGE('',*,*,#115,.F.);
#117=ORIENTED_EDGE('',*,*,#78,.T.);
#118=EDGE_LOOP('',(#102,#110,#116,#117));
#119=FACE_OUTER_BOUND('',#118,.T.);
#120=CARTESIAN_POINT('',(6.07268900215032,3.73082994517179,0.00000000000000));
#121=DIRECTION('',(1.00000000000000,-0.00000000000000,0.00000000000000));
#122=DIRECTION('',(-0.00000000000000,-5.25549360769304E-16,-1.00000000000000));
#123=AXIS2_PLACEMENT_3D('',#120,#121,#122);
#124=PLANE('',#123);
#125=ADVANCED_FACE('',(#119),#124,.T.);
#126=CARTESIAN_POINT('',(6.04268900215032,9.73082994517180,0.452499999999995));
#127=VERTEX_POINT('',#126);
#128=CARTESIAN_POINT('',(6.04268900215032,9.73082994517180,0.422499999999995));
#129=DIRECTION('',(0.00000000000000,-1.00000000000000,6.12323399573677E-17));
#130=DIRECTION('',(1.00000000000000,0.00000000000000,0.00000000000000));
#131=AXIS2_PLACEMENT_3D('',#128,#129,#130);
#132=CIRCLE('',#131,0.0300000000000000);
#133=EDGE_CURVE('',#96,#127,#132,.T.);
#134=ORIENTED_EDGE('',*,*,#133,.T.);
#135=CARTESIAN_POINT('',(6.04268900215032,3.73082994517179,0.452500000000000));
#136=VERTEX_POINT('',#135);
#137=CARTESIAN_POINT('',(6.04268900215032,3.73082994517179,0.452500000000000));
#138=DIRECTION('',(0.00000000000000,1.00000000000000,-8.04911692853238E-16));
#139=VECTOR('',#138,1.00000000000000);
#140=LINE('',#137,#139);
#141=EDGE_CURVE('',#136,#127,#140,.T.);
#142=ORIENTED_EDGE('',*,*,#141,.F.);
#143=CARTESIAN_POINT('',(6.04268900215032,3.73082994517179,0.422500000000000));
#144=DIRECTION('',(0.00000000000000,-1.00000000000000,6.12323399573677E-17));
#145=DIRECTION('',(1.00000000000000,0.00000000000000,0.00000000000000));
#146=AXIS2_PLACEMENT_3D('',#143,#144,#145);
#147=CIRCLE('',#146,0.0300000000000000);
#148=EDGE_CURVE('',#104,#136,#147,.T.);
#149=ORIENTED_EDGE('',*,*,#148,.F.);
#150=ORIENTED_EDGE('',*,*,#109,.T.);
#151=EDGE_LOOP('',(#134,#142,#149,#150));
#152=FACE_OUTER_BOUND('',#151,.T.);
#153=CARTESIAN_POINT('',(6.04268900215032,3.73082994517179,0.422500000000000));
#154=DIRECTION('',(0.00000000000000,1.00000000000000,-8.04911692853238E-16));
#155=DIRECTION('',(-0.707106781186552,0.00000000000000,-0.707106781186543));
#156=AXIS2_PLACEMENT_3D('',#153,#154,#155);
#157=CYLINDRICAL_SURFACE('',#156,0.0300000000000000);
#158=ADVANCED_FACE('',(#152),#157,.T.);
#159=CARTESIAN_POINT('',(3.60768900215032,9.73082994517180,0.452499999999996));
#160=VERTEX_POINT('',#159);
#161=CARTESIAN_POINT('',(6.04268900215032,9.73082994517180,0.452499999999995));
#162=DIRECTION('',(-1.00000000000000,0.00000000000000,3.64754997823460E-16));
#163=VECTOR('',#162,1.00000000000000);
#164=LINE('',#161,#163);
#165=EDGE_CURVE('',#127,#160,#164,.T.);
#166=ORIENTED_EDGE('',*,*,#165,.T.);
#167=CARTESIAN_POINT('',(3.60768900215032,3.73082994517179,0.452500000000001));
#168=VERTEX_POINT('',#167);
#169=CARTESIAN_POINT('',(3.60768900215032,3.73082994517179,0.452500000000001));
#170=DIRECTION('',(0.00000000000000,1.00000000000000,-8.04911692853238E-16));
#171=VECTOR('',#170,1.00000000000000);
#172=LINE('',#169,#171);
#173=EDGE_CURVE('',#168,#160,#172,.T.);
#174=ORIENTED_EDGE('',*,*,#173,.F.);
#175=CARTESIAN_POINT('',(6.04268900215032,3.73082994517179,0.452500000000000));
#176=DIRECTION('',(-1.00000000000000,0.00000000000000,3.64754997823460E-16));
#177=VECTOR('',#176,1.00000000000000);
#178=LINE('',#175,#177);
#179=EDGE_CURVE('',#136,#168,#178,.T.);
#180=ORIENTED_EDGE('',*,*,#179,.F.);
#181=ORIENTED_EDGE('',*,*,#141,.T.);
#182=EDGE_LOOP('',(#166,#174,#180,#181));
#183=FACE_OUTER_BOUND('',#182,.T.);
#184=CARTESIAN_POINT('',(4.82518900215032,3.73082994517179,0.452500000000000));
#185=DIRECTION('',(3.64754997823460E-16,8.04911692853238E-16,1.00000000000000));
#186=DIRECTION('',(1.00000000000000,-0.00000000000000,-3.64754997823460E-16));
#187=AXIS2_PLACEMENT_3D('',#184,#185,#186);
#188=PLANE('',#187);
#189=ADVANCED_FACE('',(#183),#188,.T.);
#190=CARTESIAN_POINT('',(3.57768900215033,9.73082994517180,0.422499999999995));
#191=VERTEX_POINT('',#190);
#192=CARTESIAN_POINT('',(3.60768900215032,9.73082994517180,0.422499999999995));
#193=DIRECTION('',(0.00000000000000,-1.00000000000000,6.12323399573677E-17));
#194=DIRECTION('',(1.00000000000000,0.00000000000000,0.00000000000000));
#195=AXIS2_PLACEMENT_3D('',#192,#193,#194);
#196=CIRCLE('',#195,0.0300000000000000);
#197=EDGE_CURVE('',#160,#191,#196,.T.);
#198=ORIENTED_EDGE('',*,*,#197,.T.);
#199=CARTESIAN_POINT('',(3.57768900215033,3.73082994517179,0.422500000000000));
#200=VERTEX_POINT('',#199);
#201=CARTESIAN_POINT('',(3.57768900215033,3.73082994517179,0.422500000000000));
#202=DIRECTION('',(0.00000000000000,1.00000000000000,-8.04911692853238E-16));
#203=VECTOR('',#202,1.00000000000000);
#204=LINE('',#201,#203);
#205=EDGE_CURVE('',#200,#191,#204,.T.);
#206=ORIENTED_EDGE('',*,*,#205,.F.);
#207=CARTESIAN_POINT('',(3.60768900215032,3.73082994517179,0.422500000000000));
#208=DIRECTION('',(0.00000000000000,-1.00000000000000,6.12323399573677E-17));
#209=DIRECTION('',(1.00000000000000,0.00000000000000,0.00000000000000));
#210=AXIS2_PLACEMENT_3D('',#207,#208,#209);
#211=CIRCLE('',#210,0.0300000000000000);
#212=EDGE_CURVE('',#168,#200,#211,.T.);
#213=ORIENTED_EDGE('',*,*,#212,.F.);
#214=ORIENTED_EDGE('',*,*,#173,.T.);
#215=EDGE_LOOP('',(#198,#206,#213,#214));
#216=FACE_OUTER_BOUND('',#215,.T.);
#217=CARTESIAN_POINT('',(3.60768900215032,3.73082994517179,0.422500000000000));
#218=DIRECTION('',(0.00000000000000,1.00000000000000,-8.04911692853238E-16));
#219=DIRECTION('',(1.00000000000000,0.00000000000000,0.00000000000000));
#220=AXIS2_PLACEMENT_3D('',#217,#218,#219);
#221=CYLINDRICAL_SURFACE('',#220,0.0300000000000000);
#222=ADVANCED_FACE('',(#216),#221,.T.);
#223=CARTESIAN_POINT('',(3.57768900215033,9.73082994517180,-0.422500000000004));
#224=VERTEX_POINT('',#223);
#225=CARTESIAN_POINT('',(3.57768900215033,9.73082994517180,0.422499999999995));
#226=DIRECTION('',(0.00000000000000,-5.25549360769305E-16,-1.00000000000000));
#227=VECTOR('',#226,1.00000000000000);
#228=LINE('',#225,#227);
#229=EDGE_CURVE('',#191,#224,#228,.T.);
#230=ORIENTED_EDGE('',*,*,#229,.T.);
#231=CARTESIAN_POINT('',(3.57768900215033,3.73082994517179,-0.422499999999999));
#232=VERTEX_POINT('',#231);
#233=CARTESIAN_POINT('',(3.57768900215033,3.73082994517179,-0.422499999999999));
#234=DIRECTION('',(0.00000000000000,1.00000000000000,-8.04911692853238E-16));
#235=VECTOR('',#234,1.00000000000000);
#236=LINE('',#233,#235);
#237=EDGE_CURVE('',#232,#224,#236,.T.);
#238=ORIENTED_EDGE('',*,*,#237,.F.);
#239=CARTESIAN_POINT('',(3.57768900215033,3.73082994517179,0.422500000000000));
#240=DIRECTION('',(0.00000000000000,-5.25549360769305E-16,-1.00000000000000));
#241=VECTOR('',#240,1.00000000000000);
#242=LINE('',#239,#241);
#243=EDGE_CURVE('',#200,#232,#242,.T.);
#244=ORIENTED_EDGE('',*,*,#243,.F.);
#245=ORIENTED_EDGE('',*,*,#205,.T.);
#246=EDGE_LOOP('',(#230,#238,#244,#245));
#247=FACE_OUTER_BOUND('',#246,.T.);
#248=CARTESIAN_POINT('',(3.57768900215033,3.73082994517179,6.66133814775094E-16));
#249=DIRECTION('',(-1.00000000000000,0.00000000000000,-0.00000000000000));
#250=DIRECTION('',(-0.00000000000000,5.25549360769305E-16,1.00000000000000));
#251=AXIS2_PLACEMENT_3D('',#248,#249,#250);
#252=PLANE('',#251);
#253=ADVANCED_FACE('',(#247),#252,.T.);
#254=CARTESIAN_POINT('',(3.63768900215032,9.73082994517180,-0.422500000000004));
#255=VERTEX_POINT('',#254);
#256=CARTESIAN_POINT('',(3.57768900215033,9.73082994517180,-0.422500000000004));
#257=DIRECTION('',(1.00000000000000,0.00000000000000,0.00000000000000));
#258=VECTOR('',#257,1.00000000000000);
#259=LINE('',#256,#258);
#260=EDGE_CURVE('',#224,#255,#259,.T.);
#261=ORIENTED_EDGE('',*,*,#260,.T.);
#262=CARTESIAN_POINT('',(3.63768900215032,3.73082994517179,-0.422499999999999));
#263=VERTEX_POINT('',#262);
#264=CARTESIAN_POINT('',(3.63768900215032,3.73082994517179,-0.422499999999999));
#265=DIRECTION('',(0.00000000000000,1.00000000000000,-8.04911692853238E-16));
#266=VECTOR('',#265,1.00000000000000);
#267=LINE('',#264,#266);
#268=EDGE_CURVE('',#263,#255,#267,.T.);
#269=ORIENTED_EDGE('',*,*,#268,.F.);
#270=CARTESIAN_POINT('',(3.57768900215033,3.73082994517179,-0.422499999999999));
#271=DIRECTION('',(1.00000000000000,0.00000000000000,0.00000000000000));
#272=VECTOR('',#271,1.00000000000000);
#273=LINE('',#270,#272);
#274=EDGE_CURVE('',#232,#263,#273,.T.);
#275=ORIENTED_EDGE('',*,*,#274,.F.);
#276=ORIENTED_EDGE('',*,*,#237,.T.);
#277=EDGE_LOOP('',(#261,#269,#275,#276));
#278=FACE_OUTER_BOUND('',#277,.T.);
#279=CARTESIAN_POINT('',(3.60768900215032,3.73082994517179,-0.422499999999999));
#280=DIRECTION('',(0.00000000000000,-8.04911692853238E-16,-1.00000000000000));
#281=DIRECTION('',(-1.00000000000000,-0.00000000000000,-0.00000000000000));
#282=AXIS2_PLACEMENT_3D('',#279,#280,#281);
#283=PLANE('',#282);
#284=ADVANCED_FACE('',(#278),#283,.T.);
#285=CARTESIAN_POINT('',(3.63768900215032,9.73082994517180,0.392499999999995));
#286=VERTEX_POINT('',#285);
#287=CARTESIAN_POINT('',(3.63768900215032,9.73082994517180,0.392499999999995));
#288=DIRECTION('',(0.00000000000000,5.44894736012347E-16,1.00000000000000));
#289=VECTOR('',#288,1.00000000000000);
#290=LINE('',#287,#289);
#291=EDGE_CURVE('',#255,#286,#290,.T.);
#292=ORIENTED_EDGE('',*,*,#291,.T.);
#293=CARTESIAN_POINT('',(3.63768900215032,3.73082994517179,0.392500000000000));
#294=VERTEX_POINT('',#293);
#295=CARTESIAN_POINT('',(3.63768900215032,3.73082994517179,0.392500000000000));
#296=DIRECTION('',(0.00000000000000,1.00000000000000,-8.04911692853238E-16));
#297=VECTOR('',#296,1.00000000000000);
#298=LINE('',#295,#297);
#299=EDGE_CURVE('',#294,#286,#298,.T.);
#300=ORIENTED_EDGE('',*,*,#299,.F.);
#301=CARTESIAN_POINT('',(3.63768900215032,3.73082994517179,0.392500000000000));
#302=DIRECTION('',(0.00000000000000,-5.44894736012347E-16,-1.00000000000000));
#303=VECTOR('',#302,1.00000000000000);
#304=LINE('',#301,#303);
#305=EDGE_CURVE('',#294,#263,#304,.T.);
#306=ORIENTED_EDGE('',*,*,#305,.T.);
#307=ORIENTED_EDGE('',*,*,#268,.T.);
#308=EDGE_LOOP('',(#292,#300,#306,#307));
#309=FACE_OUTER_BOUND('',#308,.T.);
#310=CARTESIAN_POINT('',(3.63768900215032,3.73082994517179,-0.0149999999999995));
#311=DIRECTION('',(1.00000000000000,0.00000000000000,0.00000000000000));
#312=DIRECTION('',(0.00000000000000,-5.44894736012347E-16,-1.00000000000000));
#313=AXIS2_PLACEMENT_3D('',#310,#311,#312);
#314=PLANE('',#313);
#315=ADVANCED_FACE('',(#309),#314,.T.);
#316=CARTESIAN_POINT('',(6.01268900215033,9.73082994517180,0.392499999999995));
#317=DIRECTION('',(1.00000000000000,0.00000000000000,0.00000000000000));
#318=VECTOR('',#317,1.00000000000000);
#319=LINE('',#316,#318);
#320=EDGE_CURVE('',#286,#25,#319,.T.);
#321=ORIENTED_EDGE('',*,*,#320,.T.);
#322=ORIENTED_EDGE('',*,*,#54,.F.);
#323=CARTESIAN_POINT('',(6.01268900215033,3.73082994517179,0.392500000000000));
#324=DIRECTION('',(-1.00000000000000,0.00000000000000,0.00000000000000));
#325=VECTOR('',#324,1.00000000000000);
#326=LINE('',#323,#325);
#327=EDGE_CURVE('',#43,#294,#326,.T.);
#328=ORIENTED_EDGE('',*,*,#327,.T.);
#329=ORIENTED_EDGE('',*,*,#299,.T.);
#330=EDGE_LOOP('',(#321,#322,#328,#329));
#331=FACE_OUTER_BOUND('',#330,.T.);
#332=CARTESIAN_POINT('',(4.82518900215032,3.73082994517179,0.392500000000000));
#333=DIRECTION('',(-0.00000000000000,-8.04911692853238E-16,-1.00000000000000));
#334=DIRECTION('',(-1.00000000000000,0.00000000000000,0.00000000000000));
#335=AXIS2_PLACEMENT_3D('',#332,#333,#334);
#336=PLANE('',#335);
#337=ADVANCED_FACE('',(#331),#336,.T.);
#338=ORIENTED_EDGE('',*,*,#32,.F.);
#339=ORIENTED_EDGE('',*,*,#320,.F.);
#340=ORIENTED_EDGE('',*,*,#291,.F.);
#341=ORIENTED_EDGE('',*,*,#260,.F.);
#342=ORIENTED_EDGE('',*,*,#229,.F.);
#343=ORIENTED_EDGE('',*,*,#197,.F.);
#344=ORIENTED_EDGE('',*,*,#165,.F.);
#345=ORIENTED_EDGE('',*,*,#133,.F.);
#346=ORIENTED_EDGE('',*,*,#101,.F.);
#347=ORIENTED_EDGE('',*,*,#70,.F.);
#348=EDGE_LOOP('',(#338,#339,#340,#341,#342,#343,#344,#345,#346,#347));
#349=FACE_OUTER_BOUND('',#348,.T.);
#350=CARTESIAN_POINT('',(5.27091712715032,9.73082994517180,0.392499999999995));
#351=DIRECTION('',(0.00000000000000,1.00000000000000,-8.05844665810742E-16));
#352=DIRECTION('',(-1.00000000000000,0.00000000000000,0.00000000000000));
#353=AXIS2_PLACEMENT_3D('',#350,#351,#352);
#354=PLANE('',#353);
#355=ADVANCED_FACE('',(#349),#354,.T.);
#356=ORIENTED_EDGE('',*,*,#327,.F.);
#357=ORIENTED_EDGE('',*,*,#48,.F.);
#358=ORIENTED_EDGE('',*,*,#84,.T.);
#359=ORIENTED_EDGE('',*,*,#115,.T.);
#360=ORIENTED_EDGE('',*,*,#148,.T.);
#361=ORIENTED_EDGE('',*,*,#179,.T.);
#362=ORIENTED_EDGE('',*,*,#212,.T.);
#363=ORIENTED_EDGE('',*,*,#243,.T.);
#364=ORIENTED_EDGE('',*,*,#274,.T.);
#365=ORIENTED_EDGE('',*,*,#305,.F.);
#366=EDGE_LOOP('',(#356,#357,#358,#359,#360,#361,#362,#363,#364,#365));
#367=FACE_OUTER_BOUND('',#366,.T.);
#368=CARTESIAN_POINT('',(5.27091712715032,3.73082994517179,0.392500000000000));
#369=DIRECTION('',(-0.00000000000000,1.00000000000000,-8.05844665810742E-16));
#370=DIRECTION('',(-1.00000000000000,-0.00000000000000,0.00000000000000));
#371=AXIS2_PLACEMENT_3D('',#368,#369,#370);
#372=PLANE('',#371);
#373=ADVANCED_FACE('',(#367),#372,.F.);
#374=CLOSED_SHELL('',(#63,#94,#125,#158,#189,#222,#253,#284,#315,#337,#355,#373));
#375=MANIFOLD_SOLID_BREP('',#374);
#376=COLOUR_RGB('',1.00000000000000,0.00000000000000,0.00000000000000);
#377=FILL_AREA_STYLE_COLOUR('',#376);
#378=FILL_AREA_STYLE('',(#377));
#379=SURFACE_STYLE_FILL_AREA(#378);
#380=SURFACE_SIDE_STYLE('',(#379));
#381=SURFACE_STYLE_USAGE(.BOTH.,#380);
#382=PRESENTATION_STYLE_ASSIGNMENT((#381));
#383=STYLED_ITEM('',(#382),#375);
#384=ADVANCED_BREP_SHAPE_REPRESENTATION('',(#375,#23),#18);
#385=PRODUCT('', '', ' ',(#2));
#386=PRODUCT_DEFINITION_FORMATION_WITH_SPECIFIED_SOURCE (' ', ' ', #385, .NOT_KNOWN.) ;
#387=PRODUCT_CATEGORY('part','') ;
#388=PRODUCT_RELATED_PRODUCT_CATEGORY('detail', ' ', (#385)) ;
#389=PRODUCT_CATEGORY_RELATIONSHIP(' ', ' ', #387, #388);
#390=PRODUCT_DEFINITION('', '', #386, #1);
#391=PRODUCT_DEFINITION_SHAPE('NONE', 'NONE', #390);
#392=SHAPE_DEFINITION_REPRESENTATION(#391, #384);
#393=PRESENTATION_LAYER_ASSIGNMENT('1','Unnamed [1]',(#375));
#394=MECHANICAL_DESIGN_GEOMETRIC_PRESENTATION_REPRESENTATION('',(#383), #18);
ENDSEC;
END-ISO-10303-21;
