ISO-10303-21;
HEADER;
FILE_DESCRIPTION(('', 'CAx-IF Rec.Pracs.---Representation and Presentation of Product Manufacturing Information (PMI)---4.0---2014-10-13'),'2;1');
FILE_NAME('K:/STP PART FILES/SG1301.STP', '2022-02-22T14:14:52',(''), (''), 'Kubotek Kosmos Version 3.0.10683.10683', 'KeyCreator Pro', '');
FILE_SCHEMA(('AP242_MANAGED_MODEL_BASED_3D_ENGINEERING_MIM_LF  { 1 0 10303 442 1 1 4 }'));
ENDSEC;
DATA;
#1=PRODUCT_DEFINITION_CONTEXT('',#4,'design');
#2=PRODUCT_CONTEXT('',#4,'mechanical');
#3=APPLICATION_PROTOCOL_DEFINITION('international standard','ap242_managed_model_based_3d_engineering',2011,#4);
#4=APPLICATION_CONTEXT('managed model based 3d engineering');
#10=DIMENSIONAL_EXPONENTS(1.0,0.0,0.0,0.0,0.0,0.0,0.0);
#11=DIMENSIONAL_EXPONENTS(0.0,0.0,0.0,0.0,0.0,0.0,0.0);
#12=(LENGTH_UNIT()NAMED_UNIT(*)SI_UNIT(.MILLI.,.METRE.));
#13=(NAMED_UNIT(*)PLANE_ANGLE_UNIT()SI_UNIT($,.RADIAN.));
#14=(NAMED_UNIT(*)SI_UNIT($,.STERADIAN.)SOLID_ANGLE_UNIT());
#15=LENGTH_MEASURE_WITH_UNIT(LENGTH_MEASURE(25.4),#12);
#16= (CONVERSION_BASED_UNIT('INCH',#15)LENGTH_UNIT()NAMED_UNIT(#10));
#17=UNCERTAINTY_MEASURE_WITH_UNIT(LENGTH_MEASURE(1.0E-006),#16,'','');
#18=(GEOMETRIC_REPRESENTATION_CONTEXT(3)GLOBAL_UNCERTAINTY_ASSIGNED_CONTEXT((#17))GLOBAL_UNIT_ASSIGNED_CONTEXT((#16,#13,#14))REPRESENTATION_CONTEXT('NONE','WORKSPACE'));
#20=CARTESIAN_POINT('',(0.00000000000000,0.00000000000000,0.00000000000000));
#21=DIRECTION('',(0.00000000000000,0.00000000000000,1.00000000000000));
#22=DIRECTION('',(1.00000000000000,0.00000000000000,0.00000000000000));
#23=AXIS2_PLACEMENT_3D('',#20,#21,#22);
#24=CARTESIAN_POINT('',(4.78878506219427,6.55425802033929,0.654949993328064));
#25=VERTEX_POINT('',#24);
#26=CARTESIAN_POINT('',(4.78878506219427,8.05425802033930,0.654949993328064));
#27=VERTEX_POINT('',#26);
#28=CARTESIAN_POINT('',(4.78878506219427,6.55425802033929,0.654949993328064));
#29=DIRECTION('',(0.00000000000000,1.00000000000000,0.00000000000000));
#30=VECTOR('',#29,1.00000000000000);
#31=LINE('',#28,#30);
#32=EDGE_CURVE('',#25,#27,#31,.T.);
#33=ORIENTED_EDGE('',*,*,#32,.T.);
#34=CARTESIAN_POINT('',(5.19878506219427,8.05425802033930,0.654949993328064));
#35=VERTEX_POINT('',#34);
#36=CARTESIAN_POINT('',(4.89128506219427,8.05425802033930,0.654949993328064));
#37=DIRECTION('',(-1.00000000000000,0.00000000000000,0.00000000000000));
#38=VECTOR('',#37,1.00000000000000);
#39=LINE('',#36,#38);
#40=EDGE_CURVE('',#35,#27,#39,.T.);
#41=ORIENTED_EDGE('',*,*,#40,.F.);
#42=CARTESIAN_POINT('',(5.19878506219427,6.55425802033929,0.654949993328064));
#43=VERTEX_POINT('',#42);
#44=CARTESIAN_POINT('',(5.19878506219427,6.55425802033929,0.654949993328064));
#45=DIRECTION('',(0.00000000000000,1.00000000000000,0.00000000000000));
#46=VECTOR('',#45,1.00000000000000);
#47=LINE('',#44,#46);
#48=EDGE_CURVE('',#43,#35,#47,.T.);
#49=ORIENTED_EDGE('',*,*,#48,.F.);
#50=CARTESIAN_POINT('',(5.19878506219427,6.55425802033929,0.654949993328064));
#51=DIRECTION('',(-1.00000000000000,0.00000000000000,0.00000000000000));
#52=VECTOR('',#51,1.00000000000000);
#53=LINE('',#50,#52);
#54=EDGE_CURVE('',#43,#25,#53,.T.);
#55=ORIENTED_EDGE('',*,*,#54,.T.);
#56=EDGE_LOOP('',(#33,#41,#49,#55));
#57=FACE_OUTER_BOUND('',#56,.T.);
#58=CARTESIAN_POINT('',(4.99378506219427,6.55425802033929,0.654949993328064));
#59=DIRECTION('',(0.00000000000000,0.00000000000000,-1.00000000000000));
#60=DIRECTION('',(-1.00000000000000,0.00000000000000,0.00000000000000));
#61=AXIS2_PLACEMENT_3D('',#58,#59,#60);
#62=PLANE('',#61);
#63=ADVANCED_FACE('',(#57),#62,.T.);
#64=ORIENTED_EDGE('',*,*,#48,.T.);
#65=CARTESIAN_POINT('',(5.19878506219427,8.05425802033930,0.0449311152230525));
#66=VERTEX_POINT('',#65);
#67=CARTESIAN_POINT('',(5.19878506219427,8.05425802033930,0.292702669409392));
#68=DIRECTION('',(0.00000000000000,-0.00000000000000,1.00000000000000));
#69=VECTOR('',#68,1.00000000000000);
#70=LINE('',#67,#69);
#71=EDGE_CURVE('',#66,#35,#70,.T.);
#72=ORIENTED_EDGE('',*,*,#71,.F.);
#73=CARTESIAN_POINT('',(5.19878506219427,6.55425802033929,0.0449311152230525));
#74=VERTEX_POINT('',#73);
#75=CARTESIAN_POINT('',(5.19878506219427,6.55425802033929,0.0449311152230525));
#76=DIRECTION('',(0.00000000000000,1.00000000000000,0.00000000000000));
#77=VECTOR('',#76,1.00000000000000);
#78=LINE('',#75,#77);
#79=EDGE_CURVE('',#74,#66,#78,.T.);
#80=ORIENTED_EDGE('',*,*,#79,.F.);
#81=CARTESIAN_POINT('',(5.19878506219427,6.55425802033929,0.0449311152230525));
#82=DIRECTION('',(0.00000000000000,0.00000000000000,1.00000000000000));
#83=VECTOR('',#82,1.00000000000000);
#84=LINE('',#81,#83);
#85=EDGE_CURVE('',#74,#43,#84,.T.);
#86=ORIENTED_EDGE('',*,*,#85,.T.);
#87=EDGE_LOOP('',(#64,#72,#80,#86));
#88=FACE_OUTER_BOUND('',#87,.T.);
#89=CARTESIAN_POINT('',(5.19878506219427,6.55425802033929,0.349940554275558));
#90=DIRECTION('',(-1.00000000000000,0.00000000000000,0.00000000000000));
#91=DIRECTION('',(0.00000000000000,0.00000000000000,1.00000000000000));
#92=AXIS2_PLACEMENT_3D('',#89,#90,#91);
#93=PLANE('',#92);
#94=ADVANCED_FACE('',(#88),#93,.T.);
#95=ORIENTED_EDGE('',*,*,#79,.T.);
#96=CARTESIAN_POINT('',(5.09378506219427,8.05425802033930,0.0748456451375823));
#97=VERTEX_POINT('',#96);
#98=CARTESIAN_POINT('',(4.95782142718726,8.05425802033930,0.113581723487158));
#99=DIRECTION('',(0.961730465643771,0.00000000000000,-0.273997283659192));
#100=VECTOR('',#99,1.00000000000000);
#101=LINE('',#98,#100);
#102=EDGE_CURVE('',#97,#66,#101,.T.);
#103=ORIENTED_EDGE('',*,*,#102,.F.);
#104=CARTESIAN_POINT('',(5.09378506219427,6.55425802033929,0.0748456451375823));
#105=VERTEX_POINT('',#104);
#106=CARTESIAN_POINT('',(5.09378506219427,6.55425802033929,0.0748456451375823));
#107=DIRECTION('',(0.00000000000000,1.00000000000000,0.00000000000000));
#108=VECTOR('',#107,1.00000000000000);
#109=LINE('',#106,#108);
#110=EDGE_CURVE('',#105,#97,#109,.T.);
#111=ORIENTED_EDGE('',*,*,#110,.F.);
#112=CARTESIAN_POINT('',(5.09378506219427,6.55425802033929,0.0748456451375823));
#113=DIRECTION('',(0.961730465643771,0.00000000000000,-0.273997283659192));
#114=VECTOR('',#113,1.00000000000000);
#115=LINE('',#112,#114);
#116=EDGE_CURVE('',#105,#74,#115,.T.);
#117=ORIENTED_EDGE('',*,*,#116,.T.);
#118=EDGE_LOOP('',(#95,#103,#111,#117));
#119=FACE_OUTER_BOUND('',#118,.T.);
#120=CARTESIAN_POINT('',(5.14628506219427,6.55425802033929,0.0598883801803174));
#121=DIRECTION('',(0.273997283659192,-0.00000000000000,0.961730465643771));
#122=DIRECTION('',(0.961730465643771,0.00000000000000,-0.273997283659192));
#123=AXIS2_PLACEMENT_3D('',#120,#121,#122);
#124=PLANE('',#123);
#125=ADVANCED_FACE('',(#119),#124,.T.);
#126=ORIENTED_EDGE('',*,*,#110,.T.);
#127=CARTESIAN_POINT('',(5.09378506219427,8.05425802033930,0.0399400123114315));
#128=VERTEX_POINT('',#127);
#129=CARTESIAN_POINT('',(5.09378506219427,8.05425802033930,0.146428806633866));
#130=DIRECTION('',(0.00000000000000,-0.00000000000000,1.00000000000000));
#131=VECTOR('',#130,1.00000000000000);
#132=LINE('',#129,#131);
#133=EDGE_CURVE('',#128,#97,#132,.T.);
#134=ORIENTED_EDGE('',*,*,#133,.F.);
#135=CARTESIAN_POINT('',(5.09378506219427,6.55425802033929,0.0399400123114315));
#136=VERTEX_POINT('',#135);
#137=CARTESIAN_POINT('',(5.09378506219427,6.55425802033929,0.0399400123114315));
#138=DIRECTION('',(0.00000000000000,1.00000000000000,0.00000000000000));
#139=VECTOR('',#138,1.00000000000000);
#140=LINE('',#137,#139);
#141=EDGE_CURVE('',#136,#128,#140,.T.);
#142=ORIENTED_EDGE('',*,*,#141,.F.);
#143=CARTESIAN_POINT('',(5.09378506219427,6.55425802033929,0.0748456451375823));
#144=DIRECTION('',(0.00000000000000,0.00000000000000,-1.00000000000000));
#145=VECTOR('',#144,1.00000000000000);
#146=LINE('',#143,#145);
#147=EDGE_CURVE('',#105,#136,#146,.T.);
#148=ORIENTED_EDGE('',*,*,#147,.F.);
#149=EDGE_LOOP('',(#126,#134,#142,#148));
#150=FACE_OUTER_BOUND('',#149,.T.);
#151=CARTESIAN_POINT('',(5.09378506219427,6.55425802033929,0.0573928287245069));
#152=DIRECTION('',(-1.00000000000000,0.00000000000000,0.00000000000000));
#153=DIRECTION('',(-0.00000000000000,-0.00000000000000,1.00000000000000));
#154=AXIS2_PLACEMENT_3D('',#151,#152,#153);
#155=PLANE('',#154);
#156=ADVANCED_FACE('',(#150),#155,.T.);
#157=ORIENTED_EDGE('',*,*,#141,.T.);
#158=CARTESIAN_POINT('',(5.23378506219427,8.05425802033930,-0.000145457774038737));
#159=VERTEX_POINT('',#158);
#160=CARTESIAN_POINT('',(4.96193363499743,8.05425802033930,0.0776923440301858));
#161=DIRECTION('',(0.961368760059301,0.00000000000000,-0.275263704803306));
#162=VECTOR('',#161,1.00000000000000);
#163=LINE('',#160,#162);
#164=EDGE_CURVE('',#128,#159,#163,.T.);
#165=ORIENTED_EDGE('',*,*,#164,.T.);
#166=CARTESIAN_POINT('',(5.23364300026487,6.55425802033929,-0.000104781922457775));
#167=VERTEX_POINT('',#166);
#168=CARTESIAN_POINT('',(5.23378506219427,6.55425802033929,-0.000145457774038661));
#169=DIRECTION('',(0.00000000000000,-1.00000000000000,-0.00000000000000));
#170=VECTOR('',#169,1.00000000000000);
#171=LINE('',#168,#170);
#172=EDGE_CURVE('',#159,#167,#171,.T.);
#173=ORIENTED_EDGE('',*,*,#172,.T.);
#174=CARTESIAN_POINT('',(5.09378506219427,6.55425802033929,0.0399400123114315));
#175=DIRECTION('',(0.961368760059301,0.00000000000000,-0.275263704803306));
#176=VECTOR('',#175,1.00000000000000);
#177=LINE('',#174,#176);
#178=EDGE_CURVE('',#136,#167,#177,.T.);
#179=ORIENTED_EDGE('',*,*,#178,.F.);
#180=EDGE_LOOP('',(#157,#165,#173,#179));
#181=FACE_OUTER_BOUND('',#180,.T.);
#182=CARTESIAN_POINT('',(5.16371403122957,6.55425802033929,0.0199176151944869));
#183=DIRECTION('',(-0.275263704803306,0.00000000000000,-0.961368760059301));
#184=DIRECTION('',(-0.961368760059301,-0.00000000000000,0.275263704803306));
#185=AXIS2_PLACEMENT_3D('',#182,#183,#184);
#186=PLANE('',#185);
#187=ADVANCED_FACE('',(#181),#186,.T.);
#188=ORIENTED_EDGE('',*,*,#172,.F.);
#189=CARTESIAN_POINT('',(5.23378506219427,8.05425802033930,0.669949993328065));
#190=VERTEX_POINT('',#189);
#191=CARTESIAN_POINT('',(5.23378506219427,8.05425802033930,0.285193695123015));
#192=DIRECTION('',(0.00000000000000,0.00000000000000,-1.00000000000000));
#193=VECTOR('',#192,1.00000000000000);
#194=LINE('',#191,#193);
#195=EDGE_CURVE('',#190,#159,#194,.T.);
#196=ORIENTED_EDGE('',*,*,#195,.F.);
#197=CARTESIAN_POINT('',(5.23378506219427,6.55425802033929,0.669949993328065));
#198=VERTEX_POINT('',#197);
#199=CARTESIAN_POINT('',(5.23378506219427,6.55425802033929,0.669949993328065));
#200=DIRECTION('',(0.00000000000000,1.00000000000000,0.00000000000000));
#201=VECTOR('',#200,1.00000000000000);
#202=LINE('',#199,#201);
#203=EDGE_CURVE('',#198,#190,#202,.T.);
#204=ORIENTED_EDGE('',*,*,#203,.F.);
#205=CARTESIAN_POINT('',(5.23378506219427,6.55425802033929,-5.00066719366643E-05));
#206=DIRECTION('',(0.00000000000000,0.00000000000000,1.00000000000000));
#207=VECTOR('',#206,1.00000000000000);
#208=LINE('',#205,#207);
#209=EDGE_CURVE('',#167,#198,#208,.T.);
#210=ORIENTED_EDGE('',*,*,#209,.F.);
#211=EDGE_LOOP('',(#188,#196,#204,#210));
#212=FACE_OUTER_BOUND('',#211,.T.);
#213=CARTESIAN_POINT('',(5.23378506219427,6.55425802033929,0.334922605702804));
#214=DIRECTION('',(1.00000000000000,0.00000000000000,0.00000000000000));
#215=DIRECTION('',(-0.00000000000000,-0.00000000000000,-1.00000000000000));
#216=AXIS2_PLACEMENT_3D('',#213,#214,#215);
#217=PLANE('',#216);
#218=ADVANCED_FACE('',(#212),#217,.T.);
#219=ORIENTED_EDGE('',*,*,#203,.T.);
#220=CARTESIAN_POINT('',(5.21378506219427,8.05425802033930,0.689949993328065));
#221=VERTEX_POINT('',#220);
#222=CARTESIAN_POINT('',(5.21378506219427,8.05425802033930,0.669949993328065));
#223=DIRECTION('',(0.00000000000000,1.00000000000000,0.00000000000000));
#224=DIRECTION('',(-0.707106781186536,0.00000000000000,-0.707106781186559));
#225=AXIS2_PLACEMENT_3D('',#222,#223,#224);
#226=CIRCLE('',#225,0.0200000000000000);
#227=EDGE_CURVE('',#221,#190,#226,.T.);
#228=ORIENTED_EDGE('',*,*,#227,.F.);
#229=CARTESIAN_POINT('',(5.21378506219427,6.55425802033929,0.689949993328065));
#230=VERTEX_POINT('',#229);
#231=CARTESIAN_POINT('',(5.21378506219427,6.55425802033929,0.689949993328065));
#232=DIRECTION('',(0.00000000000000,1.00000000000000,0.00000000000000));
#233=VECTOR('',#232,1.00000000000000);
#234=LINE('',#231,#233);
#235=EDGE_CURVE('',#230,#221,#234,.T.);
#236=ORIENTED_EDGE('',*,*,#235,.F.);
#237=CARTESIAN_POINT('',(5.21378506219427,6.55425802033929,0.669949993328065));
#238=DIRECTION('',(-3.06161699786838E-17,-1.00000000000000,3.06161699786829E-17));
#239=DIRECTION('',(-0.707106781186536,0.00000000000000,-0.707106781186559));
#240=AXIS2_PLACEMENT_3D('',#237,#238,#239);
#241=CIRCLE('',#240,0.0200000000000000);
#242=EDGE_CURVE('',#198,#230,#241,.T.);
#243=ORIENTED_EDGE('',*,*,#242,.F.);
#244=EDGE_LOOP('',(#219,#228,#236,#243));
#245=FACE_OUTER_BOUND('',#244,.T.);
#246=CARTESIAN_POINT('',(5.21378506219427,6.55425802033929,0.669949993328065));
#247=DIRECTION('',(0.00000000000000,1.00000000000000,0.00000000000000));
#248=DIRECTION('',(-0.707106781186536,0.00000000000000,-0.707106781186559));
#249=AXIS2_PLACEMENT_3D('',#246,#247,#248);
#250=CYLINDRICAL_SURFACE('',#249,0.0200000000000000);
#251=ADVANCED_FACE('',(#245),#250,.T.);
#252=ORIENTED_EDGE('',*,*,#235,.T.);
#253=CARTESIAN_POINT('',(4.77378506219427,8.05425802033930,0.689949993328065));
#254=VERTEX_POINT('',#253);
#255=CARTESIAN_POINT('',(4.89128506219427,8.05425802033930,0.689949993328064));
#256=DIRECTION('',(1.00000000000000,0.00000000000000,-0.00000000000000));
#257=VECTOR('',#256,1.00000000000000);
#258=LINE('',#255,#257);
#259=EDGE_CURVE('',#254,#221,#258,.T.);
#260=ORIENTED_EDGE('',*,*,#259,.F.);
#261=CARTESIAN_POINT('',(4.77378506219427,6.55425802033929,0.689949993328065));
#262=VERTEX_POINT('',#261);
#263=CARTESIAN_POINT('',(4.77378506219427,6.55425802033929,0.689949993328065));
#264=DIRECTION('',(0.00000000000000,1.00000000000000,0.00000000000000));
#265=VECTOR('',#264,1.00000000000000);
#266=LINE('',#263,#265);
#267=EDGE_CURVE('',#262,#254,#266,.T.);
#268=ORIENTED_EDGE('',*,*,#267,.F.);
#269=CARTESIAN_POINT('',(5.21378506219427,6.55425802033929,0.689949993328064));
#270=DIRECTION('',(-1.00000000000000,0.00000000000000,0.00000000000000));
#271=VECTOR('',#270,1.00000000000000);
#272=LINE('',#269,#271);
#273=EDGE_CURVE('',#230,#262,#272,.T.);
#274=ORIENTED_EDGE('',*,*,#273,.F.);
#275=EDGE_LOOP('',(#252,#260,#268,#274));
#276=FACE_OUTER_BOUND('',#275,.T.);
#277=CARTESIAN_POINT('',(4.99378506219427,6.55425802033929,0.689949993328064));
#278=DIRECTION('',(0.00000000000000,-0.00000000000000,1.00000000000000));
#279=DIRECTION('',(1.00000000000000,-0.00000000000000,-0.00000000000000));
#280=AXIS2_PLACEMENT_3D('',#277,#278,#279);
#281=PLANE('',#280);
#282=ADVANCED_FACE('',(#276),#281,.T.);
#283=ORIENTED_EDGE('',*,*,#267,.T.);
#284=CARTESIAN_POINT('',(4.75378506219427,8.05425802033930,0.669949993328065));
#285=VERTEX_POINT('',#284);
#286=CARTESIAN_POINT('',(4.77378506219427,8.05425802033930,0.669949993328065));
#287=DIRECTION('',(0.00000000000000,1.00000000000000,0.00000000000000));
#288=DIRECTION('',(1.00000000000000,-0.00000000000000,0.00000000000000));
#289=AXIS2_PLACEMENT_3D('',#286,#287,#288);
#290=CIRCLE('',#289,0.0200000000000000);
#291=EDGE_CURVE('',#285,#254,#290,.T.);
#292=ORIENTED_EDGE('',*,*,#291,.F.);
#293=CARTESIAN_POINT('',(4.75378506219427,6.55425802033929,0.669949993328065));
#294=VERTEX_POINT('',#293);
#295=CARTESIAN_POINT('',(4.75378506219427,6.55425802033929,0.669949993328065));
#296=DIRECTION('',(0.00000000000000,1.00000000000000,0.00000000000000));
#297=VECTOR('',#296,1.00000000000000);
#298=LINE('',#295,#297);
#299=EDGE_CURVE('',#294,#285,#298,.T.);
#300=ORIENTED_EDGE('',*,*,#299,.F.);
#301=CARTESIAN_POINT('',(4.77378506219427,6.55425802033929,0.669949993328065));
#302=DIRECTION('',(0.00000000000000,-1.00000000000000,6.12323399573677E-17));
#303=DIRECTION('',(1.00000000000000,0.00000000000000,0.00000000000000));
#304=AXIS2_PLACEMENT_3D('',#301,#302,#303);
#305=CIRCLE('',#304,0.0200000000000000);
#306=EDGE_CURVE('',#262,#294,#305,.T.);
#307=ORIENTED_EDGE('',*,*,#306,.F.);
#308=EDGE_LOOP('',(#283,#292,#300,#307));
#309=FACE_OUTER_BOUND('',#308,.T.);
#310=CARTESIAN_POINT('',(4.77378506219427,6.55425802033929,0.669949993328065));
#311=DIRECTION('',(0.00000000000000,1.00000000000000,0.00000000000000));
#312=DIRECTION('',(1.00000000000000,-0.00000000000000,0.00000000000000));
#313=AXIS2_PLACEMENT_3D('',#310,#311,#312);
#314=CYLINDRICAL_SURFACE('',#313,0.0200000000000000);
#315=ADVANCED_FACE('',(#309),#314,.T.);
#316=ORIENTED_EDGE('',*,*,#299,.T.);
#317=CARTESIAN_POINT('',(4.75378506219427,8.05425802033930,-1.02295921134976E-05));
#318=VERTEX_POINT('',#317);
#319=CARTESIAN_POINT('',(4.75378506219427,8.05425802033930,0.285219890603630));
#320=DIRECTION('',(0.00000000000000,0.00000000000000,-1.00000000000000));
#321=VECTOR('',#320,1.00000000000000);
#322=LINE('',#319,#321);
#323=EDGE_CURVE('',#285,#318,#322,.T.);
#324=ORIENTED_EDGE('',*,*,#323,.T.);
#325=CARTESIAN_POINT('',(4.75382089254570,6.55425802033929,0.00000000000000));
#326=VERTEX_POINT('',#325);
#327=CARTESIAN_POINT('',(4.75378506219427,6.55425802033929,-1.02295921134768E-05));
#328=DIRECTION('',(0.00000000000000,1.00000000000000,0.00000000000000));
#329=VECTOR('',#328,1.00000000000000);
#330=LINE('',#327,#329);
#331=EDGE_CURVE('',#326,#318,#330,.T.);
#332=ORIENTED_EDGE('',*,*,#331,.F.);
#333=CARTESIAN_POINT('',(4.75378506219427,6.55425802033929,-5.00066719366643E-05));
#334=DIRECTION('',(0.00000000000000,0.00000000000000,1.00000000000000));
#335=VECTOR('',#334,1.00000000000000);
#336=LINE('',#333,#335);
#337=EDGE_CURVE('',#326,#294,#336,.T.);
#338=ORIENTED_EDGE('',*,*,#337,.T.);
#339=EDGE_LOOP('',(#316,#324,#332,#338));
#340=FACE_OUTER_BOUND('',#339,.T.);
#341=CARTESIAN_POINT('',(4.75378506219427,6.55425802033929,0.334974996664033));
#342=DIRECTION('',(-1.00000000000000,0.00000000000000,0.00000000000000));
#343=DIRECTION('',(0.00000000000000,0.00000000000000,1.00000000000000));
#344=AXIS2_PLACEMENT_3D('',#341,#342,#343);
#345=PLANE('',#344);
#346=ADVANCED_FACE('',(#340),#345,.T.);
#347=ORIENTED_EDGE('',*,*,#331,.T.);
#348=CARTESIAN_POINT('',(4.89378506219427,8.05425802033930,0.0399598750416684));
#349=VERTEX_POINT('',#348);
#350=CARTESIAN_POINT('',(4.83607978836059,8.05425802033930,0.0234849762341464));
#351=DIRECTION('',(0.961578168016754,-0.00000000000000,0.274531285637072));
#352=VECTOR('',#351,1.00000000000000);
#353=LINE('',#350,#352);
#354=EDGE_CURVE('',#318,#349,#353,.T.);
#355=ORIENTED_EDGE('',*,*,#354,.T.);
#356=CARTESIAN_POINT('',(4.89388091816261,6.55425802033929,0.0399872419922724));
#357=VERTEX_POINT('',#356);
#358=CARTESIAN_POINT('',(4.89378506219427,6.55425802033929,0.0399598750416682));
#359=DIRECTION('',(0.00000000000000,1.00000000000000,0.00000000000000));
#360=VECTOR('',#359,1.00000000000000);
#361=LINE('',#358,#360);
#362=EDGE_CURVE('',#357,#349,#361,.T.);
#363=ORIENTED_EDGE('',*,*,#362,.F.);
#364=CARTESIAN_POINT('',(4.89388091816261,6.55425802033929,0.0399872419922724));
#365=DIRECTION('',(-0.961578168016754,0.00000000000000,-0.274531285637072));
#366=VECTOR('',#365,1.00000000000000);
#367=LINE('',#364,#366);
#368=EDGE_CURVE('',#357,#326,#367,.T.);
#369=ORIENTED_EDGE('',*,*,#368,.T.);
#370=EDGE_LOOP('',(#347,#355,#363,#369));
#371=FACE_OUTER_BOUND('',#370,.T.);
#372=CARTESIAN_POINT('',(4.82385090535416,6.55425802033929,0.0199936209961362));
#373=DIRECTION('',(0.274531285637072,0.00000000000000,-0.961578168016754));
#374=DIRECTION('',(-0.961578168016754,0.00000000000000,-0.274531285637072));
#375=AXIS2_PLACEMENT_3D('',#372,#373,#374);
#376=PLANE('',#375);
#377=ADVANCED_FACE('',(#371),#376,.T.);
#378=ORIENTED_EDGE('',*,*,#362,.T.);
#379=CARTESIAN_POINT('',(4.89378506219427,8.05425802033930,0.0749225421239193));
#380=VERTEX_POINT('',#379);
#381=CARTESIAN_POINT('',(4.89378506219427,8.05425802033930,0.146466701101697));
#382=DIRECTION('',(-0.00000000000000,0.00000000000000,1.00000000000000));
#383=VECTOR('',#382,1.00000000000000);
#384=LINE('',#381,#383);
#385=EDGE_CURVE('',#349,#380,#384,.T.);
#386=ORIENTED_EDGE('',*,*,#385,.T.);
#387=CARTESIAN_POINT('',(4.89378506219427,6.55425802033929,0.0749499933280635));
#388=VERTEX_POINT('',#387);
#389=CARTESIAN_POINT('',(4.89378506219427,6.55425802033929,0.0749225421239191));
#390=DIRECTION('',(-0.00000000000000,-1.00000000000000,0.00000000000000));
#391=VECTOR('',#390,1.00000000000000);
#392=LINE('',#389,#391);
#393=EDGE_CURVE('',#380,#388,#392,.T.);
#394=ORIENTED_EDGE('',*,*,#393,.T.);
#395=CARTESIAN_POINT('',(4.89378506219427,6.55425802033929,0.0749499933280635));
#396=DIRECTION('',(0.00000000000000,0.00000000000000,-1.00000000000000));
#397=VECTOR('',#396,1.00000000000000);
#398=LINE('',#395,#397);
#399=EDGE_CURVE('',#388,#357,#398,.T.);
#400=ORIENTED_EDGE('',*,*,#399,.T.);
#401=EDGE_LOOP('',(#378,#386,#394,#400));
#402=FACE_OUTER_BOUND('',#401,.T.);
#403=CARTESIAN_POINT('',(4.89378506219427,6.55425802033929,0.0574686176601680));
#404=DIRECTION('',(1.00000000000000,-0.00000000000000,0.00000000000000));
#405=DIRECTION('',(0.00000000000000,0.00000000000000,-1.00000000000000));
#406=AXIS2_PLACEMENT_3D('',#403,#404,#405);
#407=PLANE('',#406);
#408=ADVANCED_FACE('',(#402),#407,.T.);
#409=ORIENTED_EDGE('',*,*,#393,.F.);
#410=CARTESIAN_POINT('',(4.78878506219427,8.05425802033930,0.0449449636485824));
#411=VERTEX_POINT('',#410);
#412=CARTESIAN_POINT('',(4.84018389849133,8.05425802033930,0.0596193698260692));
#413=DIRECTION('',(0.961578168016754,-0.00000000000000,0.274531285637070));
#414=VECTOR('',#413,1.00000000000000);
#415=LINE('',#412,#414);
#416=EDGE_CURVE('',#411,#380,#415,.T.);
#417=ORIENTED_EDGE('',*,*,#416,.F.);
#418=CARTESIAN_POINT('',(4.78878506219427,6.55425802033929,0.0449449636485824));
#419=VERTEX_POINT('',#418);
#420=CARTESIAN_POINT('',(4.78878506219427,6.55425802033929,0.0449449636485824));
#421=DIRECTION('',(0.00000000000000,1.00000000000000,0.00000000000000));
#422=VECTOR('',#421,1.00000000000000);
#423=LINE('',#420,#422);
#424=EDGE_CURVE('',#419,#411,#423,.T.);
#425=ORIENTED_EDGE('',*,*,#424,.F.);
#426=CARTESIAN_POINT('',(4.89388091816261,6.55425802033929,0.0749499090745207));
#427=DIRECTION('',(-0.961578168016754,0.00000000000000,-0.274531285637070));
#428=VECTOR('',#427,1.00000000000000);
#429=LINE('',#426,#428);
#430=EDGE_CURVE('',#388,#419,#429,.T.);
#431=ORIENTED_EDGE('',*,*,#430,.F.);
#432=EDGE_LOOP('',(#409,#417,#425,#431));
#433=FACE_OUTER_BOUND('',#432,.T.);
#434=CARTESIAN_POINT('',(4.84128868552387,6.55425802033929,0.0599347873495599));
#435=DIRECTION('',(-0.274531285637070,0.00000000000000,0.961578168016754));
#436=DIRECTION('',(0.961578168016754,-0.00000000000000,0.274531285637070));
#437=AXIS2_PLACEMENT_3D('',#434,#435,#436);
#438=PLANE('',#437);
#439=ADVANCED_FACE('',(#433),#438,.T.);
#440=ORIENTED_EDGE('',*,*,#424,.T.);
#441=CARTESIAN_POINT('',(4.78878506219427,8.05425802033930,0.292706131515775));
#442=DIRECTION('',(0.00000000000000,0.00000000000000,-1.00000000000000));
#443=VECTOR('',#442,1.00000000000000);
#444=LINE('',#441,#443);
#445=EDGE_CURVE('',#27,#411,#444,.T.);
#446=ORIENTED_EDGE('',*,*,#445,.F.);
#447=ORIENTED_EDGE('',*,*,#32,.F.);
#448=CARTESIAN_POINT('',(4.78878506219427,6.55425802033929,0.0449449636485824));
#449=DIRECTION('',(0.00000000000000,0.00000000000000,1.00000000000000));
#450=VECTOR('',#449,1.00000000000000);
#451=LINE('',#448,#450);
#452=EDGE_CURVE('',#419,#25,#451,.T.);
#453=ORIENTED_EDGE('',*,*,#452,.F.);
#454=EDGE_LOOP('',(#440,#446,#447,#453));
#455=FACE_OUTER_BOUND('',#454,.T.);
#456=CARTESIAN_POINT('',(4.78878506219427,6.55425802033929,0.349947478488323));
#457=DIRECTION('',(1.00000000000000,0.00000000000000,0.00000000000000));
#458=DIRECTION('',(-0.00000000000000,-0.00000000000000,-1.00000000000000));
#459=AXIS2_PLACEMENT_3D('',#456,#457,#458);
#460=PLANE('',#459);
#461=ADVANCED_FACE('',(#455),#460,.T.);
#462=ORIENTED_EDGE('',*,*,#71,.T.);
#463=ORIENTED_EDGE('',*,*,#40,.T.);
#464=ORIENTED_EDGE('',*,*,#445,.T.);
#465=ORIENTED_EDGE('',*,*,#416,.T.);
#466=ORIENTED_EDGE('',*,*,#385,.F.);
#467=ORIENTED_EDGE('',*,*,#354,.F.);
#468=ORIENTED_EDGE('',*,*,#323,.F.);
#469=ORIENTED_EDGE('',*,*,#291,.T.);
#470=ORIENTED_EDGE('',*,*,#259,.T.);
#471=ORIENTED_EDGE('',*,*,#227,.T.);
#472=ORIENTED_EDGE('',*,*,#195,.T.);
#473=ORIENTED_EDGE('',*,*,#164,.F.);
#474=ORIENTED_EDGE('',*,*,#133,.T.);
#475=ORIENTED_EDGE('',*,*,#102,.T.);
#476=EDGE_LOOP('',(#462,#463,#464,#465,#466,#467,#468,#469,#470,#471,#472,#473,#474,#475));
#477=FACE_OUTER_BOUND('',#476,.T.);
#478=CARTESIAN_POINT('',(4.78878506219427,8.05425802033930,0.235464784543226));
#479=DIRECTION('',(0.00000000000000,1.00000000000000,0.00000000000000));
#480=DIRECTION('',(-1.00000000000000,0.00000000000000,0.00000000000000));
#481=AXIS2_PLACEMENT_3D('',#478,#479,#480);
#482=PLANE('',#481);
#483=ADVANCED_FACE('',(#477),#482,.T.);
#484=ORIENTED_EDGE('',*,*,#430,.T.);
#485=ORIENTED_EDGE('',*,*,#452,.T.);
#486=ORIENTED_EDGE('',*,*,#54,.F.);
#487=ORIENTED_EDGE('',*,*,#85,.F.);
#488=ORIENTED_EDGE('',*,*,#116,.F.);
#489=ORIENTED_EDGE('',*,*,#147,.T.);
#490=ORIENTED_EDGE('',*,*,#178,.T.);
#491=ORIENTED_EDGE('',*,*,#209,.T.);
#492=ORIENTED_EDGE('',*,*,#242,.T.);
#493=ORIENTED_EDGE('',*,*,#273,.T.);
#494=ORIENTED_EDGE('',*,*,#306,.T.);
#495=ORIENTED_EDGE('',*,*,#337,.F.);
#496=ORIENTED_EDGE('',*,*,#368,.F.);
#497=ORIENTED_EDGE('',*,*,#399,.F.);
#498=EDGE_LOOP('',(#484,#485,#486,#487,#488,#489,#490,#491,#492,#493,#494,#495,#496,#497));
#499=FACE_OUTER_BOUND('',#498,.T.);
#500=CARTESIAN_POINT('',(4.78878506219427,6.55425802033929,0.235464784543226));
#501=DIRECTION('',(0.00000000000000,1.00000000000000,-0.00000000000000));
#502=DIRECTION('',(-1.00000000000000,0.00000000000000,0.00000000000000));
#503=AXIS2_PLACEMENT_3D('',#500,#501,#502);
#504=PLANE('',#503);
#505=ADVANCED_FACE('',(#499),#504,.F.);
#506=CLOSED_SHELL('',(#63,#94,#125,#156,#187,#218,#251,#282,#315,#346,#377,#408,#439,#461,#483,#505));
#507=MANIFOLD_SOLID_BREP('',#506);
#508=COLOUR_RGB('',1.00000000000000,0.00000000000000,0.00000000000000);
#509=FILL_AREA_STYLE_COLOUR('',#508);
#510=FILL_AREA_STYLE('',(#509));
#511=SURFACE_STYLE_FILL_AREA(#510);
#512=SURFACE_SIDE_STYLE('',(#511));
#513=SURFACE_STYLE_USAGE(.BOTH.,#512);
#514=PRESENTATION_STYLE_ASSIGNMENT((#513));
#515=STYLED_ITEM('',(#514),#507);
#516=ADVANCED_BREP_SHAPE_REPRESENTATION('',(#507,#23),#18);
#517=PRODUCT('','','',(#2));
#518=PRODUCT_DEFINITION_FORMATION_WITH_SPECIFIED_SOURCE('','',#517,.NOT_KNOWN.);
#519=PRODUCT_CATEGORY('part','');
#520=PRODUCT_RELATED_PRODUCT_CATEGORY('detail','',(#517));
#521=PRODUCT_CATEGORY_RELATIONSHIP('','',#519,#520);
#522=PRODUCT_DEFINITION('','',#518,#1);
#523=PRODUCT_DEFINITION_SHAPE('NONE','NONE',#522);
#524=SHAPE_DEFINITION_REPRESENTATION(#523,#516);
#525=PRESENTATION_LAYER_ASSIGNMENT('1','Unnamed [1]',(#507));
ENDSEC;
END-ISO-10303-21;
