ISO-10303-21;
HEADER;
FILE_DESCRIPTION((''),'2;1');
FILE_NAME('C:/Program Files/Kubotek/KeyCreatorPro.2021.SP0/STEP/SG1297.STP', '2021-02-11T16:10:52',(''), (''), 'KCM Version 2.0.6974.6974', 'KeyCreator Pro', '');
FILE_SCHEMA(('AUTOMOTIVE_DESIGN'));
ENDSEC;
DATA;
#1=PRODUCT_DEFINITION_CONTEXT('',#4,'design');
#2=PRODUCT_CONTEXT('',#4,'mechanical');
#3=APPLICATION_PROTOCOL_DEFINITION('International Standard','automotive_design',2001,#4);
#4=APPLICATION_CONTEXT('automotive design');
#10=DIMENSIONAL_EXPONENTS(1.0,0.0,0.0,0.0,0.0,0.0,0.0);
#11=DIMENSIONAL_EXPONENTS(0.0,0.0,0.0,0.0,0.0,0.0,0.0);
#12=(NAMED_UNIT(#10)LENGTH_UNIT()SI_UNIT(.MILLI.,.METRE.));
#13=(NAMED_UNIT(#11)PLANE_ANGLE_UNIT()SI_UNIT($,.RADIAN.));
#14=(NAMED_UNIT(#11)SOLID_ANGLE_UNIT()SI_UNIT($,.STERADIAN.));
#15=LENGTH_MEASURE_WITH_UNIT(LENGTH_MEASURE(25.4),#12);
#16= (CONVERSION_BASED_UNIT('INCH',#15)LENGTH_UNIT()NAMED_UNIT(#10));
#17=UNCERTAINTY_MEASURE_WITH_UNIT(LENGTH_MEASURE(1.0E-006),#16,'','');
#18=(GEOMETRIC_REPRESENTATION_CONTEXT(3)GLOBAL_UNCERTAINTY_ASSIGNED_CONTEXT((#17))GLOBAL_UNIT_ASSIGNED_CONTEXT((#16,#13,#14))REPRESENTATION_CONTEXT('NONE','WORKSPACE'));
#20=CARTESIAN_POINT('',(0.00000000000000,0.00000000000000,0.00000000000000));
#21=DIRECTION('',(0.00000000000000,0.00000000000000,1.00000000000000));
#22=DIRECTION('',(1.00000000000000,0.00000000000000,0.00000000000000));
#23=AXIS2_PLACEMENT_3D('',#20,#21,#22);
#24=CARTESIAN_POINT('',(6.91792926343135,10.3512126242655,0.365000000000000));
#25=VERTEX_POINT('',#24);
#26=CARTESIAN_POINT('',(6.89792926343134,10.3512126242655,0.385000000000000));
#27=VERTEX_POINT('',#26);
#28=CARTESIAN_POINT('',(6.89792926343134,10.3512126242655,0.365000000000000));
#29=DIRECTION('',(0.00000000000000,-1.00000000000000,6.12323399573677E-17));
#30=DIRECTION('',(1.00000000000000,0.00000000000000,0.00000000000000));
#31=AXIS2_PLACEMENT_3D('',#28,#29,#30);
#32=CIRCLE('',#31,0.0200000000000000);
#33=EDGE_CURVE('',#25,#27,#32,.T.);
#34=ORIENTED_EDGE('',*,*,#33,.T.);
#35=CARTESIAN_POINT('',(6.89792926343134,4.35121262426547,0.385000000000000));
#36=VERTEX_POINT('',#35);
#37=CARTESIAN_POINT('',(6.89792926343134,4.35121262426547,0.385000000000000));
#38=DIRECTION('',(0.00000000000000,1.00000000000000,0.00000000000000));
#39=VECTOR('',#38,1.00000000000000);
#40=LINE('',#37,#39);
#41=EDGE_CURVE('',#36,#27,#40,.T.);
#42=ORIENTED_EDGE('',*,*,#41,.F.);
#43=CARTESIAN_POINT('',(6.91792926343135,4.35121262426547,0.365000000000000));
#44=VERTEX_POINT('',#43);
#45=CARTESIAN_POINT('',(6.89792926343134,4.35121262426547,0.365000000000000));
#46=DIRECTION('',(0.00000000000000,-1.00000000000000,6.12323399573677E-17));
#47=DIRECTION('',(1.00000000000000,0.00000000000000,0.00000000000000));
#48=AXIS2_PLACEMENT_3D('',#45,#46,#47);
#49=CIRCLE('',#48,0.0200000000000000);
#50=EDGE_CURVE('',#44,#36,#49,.T.);
#51=ORIENTED_EDGE('',*,*,#50,.F.);
#52=CARTESIAN_POINT('',(6.91792926343135,4.35121262426547,0.365000000000000));
#53=DIRECTION('',(0.00000000000000,1.00000000000000,0.00000000000000));
#54=VECTOR('',#53,1.00000000000000);
#55=LINE('',#52,#54);
#56=EDGE_CURVE('',#44,#25,#55,.T.);
#57=ORIENTED_EDGE('',*,*,#56,.T.);
#58=EDGE_LOOP('',(#34,#42,#51,#57));
#59=FACE_OUTER_BOUND('',#58,.T.);
#60=CARTESIAN_POINT('',(6.89792926343134,4.35121262426547,0.365000000000000));
#61=DIRECTION('',(0.00000000000000,1.00000000000000,0.00000000000000));
#62=DIRECTION('',(-0.707106781186538,0.00000000000000,-0.707106781186557));
#63=AXIS2_PLACEMENT_3D('',#60,#61,#62);
#64=CYLINDRICAL_SURFACE('',#63,0.0200000000000000);
#65=ADVANCED_FACE('',(#59),#64,.T.);
#66=CARTESIAN_POINT('',(3.18792926343135,10.3512126242655,0.385000000000002));
#67=VERTEX_POINT('',#66);
#68=CARTESIAN_POINT('',(6.89792926343134,10.3512126242655,0.385000000000000));
#69=DIRECTION('',(-1.00000000000000,0.00000000000000,4.78802382587669E-16));
#70=VECTOR('',#69,1.00000000000000);
#71=LINE('',#68,#70);
#72=EDGE_CURVE('',#27,#67,#71,.T.);
#73=ORIENTED_EDGE('',*,*,#72,.T.);
#74=CARTESIAN_POINT('',(3.18792926343135,4.35121262426547,0.385000000000002));
#75=VERTEX_POINT('',#74);
#76=CARTESIAN_POINT('',(3.18792926343135,4.35121262426547,0.385000000000002));
#77=DIRECTION('',(0.00000000000000,1.00000000000000,0.00000000000000));
#78=VECTOR('',#77,1.00000000000000);
#79=LINE('',#76,#78);
#80=EDGE_CURVE('',#75,#67,#79,.T.);
#81=ORIENTED_EDGE('',*,*,#80,.F.);
#82=CARTESIAN_POINT('',(6.89792926343134,4.35121262426547,0.385000000000000));
#83=DIRECTION('',(-1.00000000000000,0.00000000000000,4.78802382587669E-16));
#84=VECTOR('',#83,1.00000000000000);
#85=LINE('',#82,#84);
#86=EDGE_CURVE('',#36,#75,#85,.T.);
#87=ORIENTED_EDGE('',*,*,#86,.F.);
#88=ORIENTED_EDGE('',*,*,#41,.T.);
#89=EDGE_LOOP('',(#73,#81,#87,#88));
#90=FACE_OUTER_BOUND('',#89,.T.);
#91=CARTESIAN_POINT('',(5.04292926343135,4.35121262426547,0.385000000000001));
#92=DIRECTION('',(4.78802382587669E-16,-0.00000000000000,1.00000000000000));
#93=DIRECTION('',(1.00000000000000,-0.00000000000000,-4.78802382587669E-16));
#94=AXIS2_PLACEMENT_3D('',#91,#92,#93);
#95=PLANE('',#94);
#96=ADVANCED_FACE('',(#90),#95,.T.);
#97=CARTESIAN_POINT('',(3.16792926343135,10.3512126242655,0.365000000000001));
#98=VERTEX_POINT('',#97);
#99=CARTESIAN_POINT('',(3.18792926343135,10.3512126242655,0.365000000000001));
#100=DIRECTION('',(0.00000000000000,-1.00000000000000,6.12323399573677E-17));
#101=DIRECTION('',(1.00000000000000,0.00000000000000,0.00000000000000));
#102=AXIS2_PLACEMENT_3D('',#99,#100,#101);
#103=CIRCLE('',#102,0.0200000000000000);
#104=EDGE_CURVE('',#67,#98,#103,.T.);
#105=ORIENTED_EDGE('',*,*,#104,.T.);
#106=CARTESIAN_POINT('',(3.16792926343135,4.35121262426547,0.365000000000001));
#107=VERTEX_POINT('',#106);
#108=CARTESIAN_POINT('',(3.16792926343135,4.35121262426547,0.365000000000001));
#109=DIRECTION('',(0.00000000000000,1.00000000000000,0.00000000000000));
#110=VECTOR('',#109,1.00000000000000);
#111=LINE('',#108,#110);
#112=EDGE_CURVE('',#107,#98,#111,.T.);
#113=ORIENTED_EDGE('',*,*,#112,.F.);
#114=CARTESIAN_POINT('',(3.18792926343135,4.35121262426547,0.365000000000001));
#115=DIRECTION('',(0.00000000000000,-1.00000000000000,6.12323399573677E-17));
#116=DIRECTION('',(1.00000000000000,0.00000000000000,0.00000000000000));
#117=AXIS2_PLACEMENT_3D('',#114,#115,#116);
#118=CIRCLE('',#117,0.0200000000000000);
#119=EDGE_CURVE('',#75,#107,#118,.T.);
#120=ORIENTED_EDGE('',*,*,#119,.F.);
#121=ORIENTED_EDGE('',*,*,#80,.T.);
#122=EDGE_LOOP('',(#105,#113,#120,#121));
#123=FACE_OUTER_BOUND('',#122,.T.);
#124=CARTESIAN_POINT('',(3.18792926343135,4.35121262426547,0.365000000000001));
#125=DIRECTION('',(0.00000000000000,1.00000000000000,0.00000000000000));
#126=DIRECTION('',(1.00000000000000,-0.00000000000000,0.00000000000000));
#127=AXIS2_PLACEMENT_3D('',#124,#125,#126);
#128=CYLINDRICAL_SURFACE('',#127,0.0200000000000000);
#129=ADVANCED_FACE('',(#123),#128,.T.);
#130=CARTESIAN_POINT('',(3.16792926343135,10.3512126242655,-0.364999999999999));
#131=VERTEX_POINT('',#130);
#132=CARTESIAN_POINT('',(3.16792926343135,10.3512126242655,0.365000000000001));
#133=DIRECTION('',(0.00000000000000,0.00000000000000,-1.00000000000000));
#134=VECTOR('',#133,1.00000000000000);
#135=LINE('',#132,#134);
#136=EDGE_CURVE('',#98,#131,#135,.T.);
#137=ORIENTED_EDGE('',*,*,#136,.T.);
#138=CARTESIAN_POINT('',(3.16792926343135,4.35121262426547,-0.364999999999999));
#139=VERTEX_POINT('',#138);
#140=CARTESIAN_POINT('',(3.16792926343135,4.35121262426547,-0.364999999999999));
#141=DIRECTION('',(0.00000000000000,1.00000000000000,0.00000000000000));
#142=VECTOR('',#141,1.00000000000000);
#143=LINE('',#140,#142);
#144=EDGE_CURVE('',#139,#131,#143,.T.);
#145=ORIENTED_EDGE('',*,*,#144,.F.);
#146=CARTESIAN_POINT('',(3.16792926343135,4.35121262426547,0.365000000000001));
#147=DIRECTION('',(0.00000000000000,0.00000000000000,-1.00000000000000));
#148=VECTOR('',#147,1.00000000000000);
#149=LINE('',#146,#148);
#150=EDGE_CURVE('',#107,#139,#149,.T.);
#151=ORIENTED_EDGE('',*,*,#150,.F.);
#152=ORIENTED_EDGE('',*,*,#112,.T.);
#153=EDGE_LOOP('',(#137,#145,#151,#152));
#154=FACE_OUTER_BOUND('',#153,.T.);
#155=CARTESIAN_POINT('',(3.16792926343135,4.35121262426547,1.11022302462516E-15));
#156=DIRECTION('',(-1.00000000000000,0.00000000000000,0.00000000000000));
#157=DIRECTION('',(-0.00000000000000,-0.00000000000000,1.00000000000000));
#158=AXIS2_PLACEMENT_3D('',#155,#156,#157);
#159=PLANE('',#158);
#160=ADVANCED_FACE('',(#154),#159,.T.);
#161=CARTESIAN_POINT('',(3.29292926343135,10.3512126242655,-0.364999999999999));
#162=VERTEX_POINT('',#161);
#163=CARTESIAN_POINT('',(3.16792926343135,10.3512126242655,-0.364999999999999));
#164=DIRECTION('',(1.00000000000000,0.00000000000000,0.00000000000000));
#165=VECTOR('',#164,1.00000000000000);
#166=LINE('',#163,#165);
#167=EDGE_CURVE('',#131,#162,#166,.T.);
#168=ORIENTED_EDGE('',*,*,#167,.T.);
#169=CARTESIAN_POINT('',(3.29292926343135,4.35121262426547,-0.364999999999999));
#170=VERTEX_POINT('',#169);
#171=CARTESIAN_POINT('',(3.29292926343135,4.35121262426547,-0.364999999999999));
#172=DIRECTION('',(0.00000000000000,1.00000000000000,0.00000000000000));
#173=VECTOR('',#172,1.00000000000000);
#174=LINE('',#171,#173);
#175=EDGE_CURVE('',#170,#162,#174,.T.);
#176=ORIENTED_EDGE('',*,*,#175,.F.);
#177=CARTESIAN_POINT('',(3.16792926343135,4.35121262426547,-0.364999999999999));
#178=DIRECTION('',(1.00000000000000,0.00000000000000,0.00000000000000));
#179=VECTOR('',#178,1.00000000000000);
#180=LINE('',#177,#179);
#181=EDGE_CURVE('',#139,#170,#180,.T.);
#182=ORIENTED_EDGE('',*,*,#181,.F.);
#183=ORIENTED_EDGE('',*,*,#144,.T.);
#184=EDGE_LOOP('',(#168,#176,#182,#183));
#185=FACE_OUTER_BOUND('',#184,.T.);
#186=CARTESIAN_POINT('',(3.23042926343135,4.35121262426547,-0.364999999999999));
#187=DIRECTION('',(0.00000000000000,0.00000000000000,-1.00000000000000));
#188=DIRECTION('',(-1.00000000000000,-0.00000000000000,-0.00000000000000));
#189=AXIS2_PLACEMENT_3D('',#186,#187,#188);
#190=PLANE('',#189);
#191=ADVANCED_FACE('',(#185),#190,.T.);
#192=CARTESIAN_POINT('',(3.29292926343135,10.3512126242655,0.260000000000002));
#193=VERTEX_POINT('',#192);
#194=CARTESIAN_POINT('',(3.29292926343135,10.3512126242655,0.260000000000002));
#195=DIRECTION('',(0.00000000000000,0.00000000000000,1.00000000000000));
#196=VECTOR('',#195,1.00000000000000);
#197=LINE('',#194,#196);
#198=EDGE_CURVE('',#162,#193,#197,.T.);
#199=ORIENTED_EDGE('',*,*,#198,.T.);
#200=CARTESIAN_POINT('',(3.29292926343135,4.35121262426547,0.260000000000002));
#201=VERTEX_POINT('',#200);
#202=CARTESIAN_POINT('',(3.29292926343135,4.35121262426547,0.260000000000002));
#203=DIRECTION('',(0.00000000000000,1.00000000000000,0.00000000000000));
#204=VECTOR('',#203,1.00000000000000);
#205=LINE('',#202,#204);
#206=EDGE_CURVE('',#201,#193,#205,.T.);
#207=ORIENTED_EDGE('',*,*,#206,.F.);
#208=CARTESIAN_POINT('',(3.29292926343135,4.35121262426547,0.260000000000002));
#209=DIRECTION('',(0.00000000000000,0.00000000000000,-1.00000000000000));
#210=VECTOR('',#209,1.00000000000000);
#211=LINE('',#208,#210);
#212=EDGE_CURVE('',#201,#170,#211,.T.);
#213=ORIENTED_EDGE('',*,*,#212,.T.);
#214=ORIENTED_EDGE('',*,*,#175,.T.);
#215=EDGE_LOOP('',(#199,#207,#213,#214));
#216=FACE_OUTER_BOUND('',#215,.T.);
#217=CARTESIAN_POINT('',(3.29292926343135,4.35121262426547,-0.0524999999999987));
#218=DIRECTION('',(1.00000000000000,-0.00000000000000,0.00000000000000));
#219=DIRECTION('',(0.00000000000000,0.00000000000000,-1.00000000000000));
#220=AXIS2_PLACEMENT_3D('',#217,#218,#219);
#221=PLANE('',#220);
#222=ADVANCED_FACE('',(#216),#221,.T.);
#223=CARTESIAN_POINT('',(6.79292926343135,10.3512126242655,0.260000000000000));
#224=VERTEX_POINT('',#223);
#225=CARTESIAN_POINT('',(6.79292926343135,10.3512126242655,0.260000000000000));
#226=DIRECTION('',(1.00000000000000,0.00000000000000,-5.07530525542929E-16));
#227=VECTOR('',#226,1.00000000000000);
#228=LINE('',#225,#227);
#229=EDGE_CURVE('',#193,#224,#228,.T.);
#230=ORIENTED_EDGE('',*,*,#229,.T.);
#231=CARTESIAN_POINT('',(6.79292926343135,4.35121262426547,0.260000000000000));
#232=VERTEX_POINT('',#231);
#233=CARTESIAN_POINT('',(6.79292926343135,4.35121262426547,0.260000000000000));
#234=DIRECTION('',(0.00000000000000,1.00000000000000,0.00000000000000));
#235=VECTOR('',#234,1.00000000000000);
#236=LINE('',#233,#235);
#237=EDGE_CURVE('',#232,#224,#236,.T.);
#238=ORIENTED_EDGE('',*,*,#237,.F.);
#239=CARTESIAN_POINT('',(6.79292926343135,4.35121262426547,0.260000000000000));
#240=DIRECTION('',(-1.00000000000000,0.00000000000000,5.07530525542929E-16));
#241=VECTOR('',#240,1.00000000000000);
#242=LINE('',#239,#241);
#243=EDGE_CURVE('',#232,#201,#242,.T.);
#244=ORIENTED_EDGE('',*,*,#243,.T.);
#245=ORIENTED_EDGE('',*,*,#206,.T.);
#246=EDGE_LOOP('',(#230,#238,#244,#245));
#247=FACE_OUTER_BOUND('',#246,.T.);
#248=CARTESIAN_POINT('',(5.04292926343135,4.35121262426547,0.260000000000001));
#249=DIRECTION('',(-5.07530525542929E-16,0.00000000000000,-1.00000000000000));
#250=DIRECTION('',(-1.00000000000000,0.00000000000000,5.07530525542929E-16));
#251=AXIS2_PLACEMENT_3D('',#248,#249,#250);
#252=PLANE('',#251);
#253=ADVANCED_FACE('',(#247),#252,.T.);
#254=CARTESIAN_POINT('',(6.79292926343135,10.3512126242655,-0.365000000000000));
#255=VERTEX_POINT('',#254);
#256=CARTESIAN_POINT('',(6.79292926343135,10.3512126242655,-0.365000000000000));
#257=DIRECTION('',(-0.00000000000000,-0.00000000000000,-1.00000000000000));
#258=VECTOR('',#257,1.00000000000000);
#259=LINE('',#256,#258);
#260=EDGE_CURVE('',#224,#255,#259,.T.);
#261=ORIENTED_EDGE('',*,*,#260,.T.);
#262=CARTESIAN_POINT('',(6.79292926343135,4.35121262426547,-0.365000000000000));
#263=VERTEX_POINT('',#262);
#264=CARTESIAN_POINT('',(6.79292926343135,4.35121262426547,-0.365000000000000));
#265=DIRECTION('',(0.00000000000000,1.00000000000000,0.00000000000000));
#266=VECTOR('',#265,1.00000000000000);
#267=LINE('',#264,#266);
#268=EDGE_CURVE('',#263,#255,#267,.T.);
#269=ORIENTED_EDGE('',*,*,#268,.F.);
#270=CARTESIAN_POINT('',(6.79292926343135,4.35121262426547,-0.365000000000000));
#271=DIRECTION('',(0.00000000000000,0.00000000000000,1.00000000000000));
#272=VECTOR('',#271,1.00000000000000);
#273=LINE('',#270,#272);
#274=EDGE_CURVE('',#263,#232,#273,.T.);
#275=ORIENTED_EDGE('',*,*,#274,.T.);
#276=ORIENTED_EDGE('',*,*,#237,.T.);
#277=EDGE_LOOP('',(#261,#269,#275,#276));
#278=FACE_OUTER_BOUND('',#277,.T.);
#279=CARTESIAN_POINT('',(6.79292926343135,4.35121262426547,-0.0525000000000000));
#280=DIRECTION('',(-1.00000000000000,0.00000000000000,0.00000000000000));
#281=DIRECTION('',(0.00000000000000,0.00000000000000,1.00000000000000));
#282=AXIS2_PLACEMENT_3D('',#279,#280,#281);
#283=PLANE('',#282);
#284=ADVANCED_FACE('',(#278),#283,.T.);
#285=CARTESIAN_POINT('',(6.91792926343135,10.3512126242655,-0.365000000000000));
#286=VERTEX_POINT('',#285);
#287=CARTESIAN_POINT('',(6.79292926343135,10.3512126242655,-0.365000000000000));
#288=DIRECTION('',(1.00000000000000,0.00000000000000,0.00000000000000));
#289=VECTOR('',#288,1.00000000000000);
#290=LINE('',#287,#289);
#291=EDGE_CURVE('',#255,#286,#290,.T.);
#292=ORIENTED_EDGE('',*,*,#291,.T.);
#293=CARTESIAN_POINT('',(6.91792926343135,4.35121262426547,-0.365000000000000));
#294=VERTEX_POINT('',#293);
#295=CARTESIAN_POINT('',(6.91792926343135,4.35121262426547,-0.365000000000000));
#296=DIRECTION('',(0.00000000000000,1.00000000000000,0.00000000000000));
#297=VECTOR('',#296,1.00000000000000);
#298=LINE('',#295,#297);
#299=EDGE_CURVE('',#294,#286,#298,.T.);
#300=ORIENTED_EDGE('',*,*,#299,.F.);
#301=CARTESIAN_POINT('',(6.79292926343135,4.35121262426547,-0.365000000000000));
#302=DIRECTION('',(1.00000000000000,0.00000000000000,0.00000000000000));
#303=VECTOR('',#302,1.00000000000000);
#304=LINE('',#301,#303);
#305=EDGE_CURVE('',#263,#294,#304,.T.);
#306=ORIENTED_EDGE('',*,*,#305,.F.);
#307=ORIENTED_EDGE('',*,*,#268,.T.);
#308=EDGE_LOOP('',(#292,#300,#306,#307));
#309=FACE_OUTER_BOUND('',#308,.T.);
#310=CARTESIAN_POINT('',(6.85542926343135,4.35121262426547,-0.365000000000000));
#311=DIRECTION('',(0.00000000000000,0.00000000000000,-1.00000000000000));
#312=DIRECTION('',(-1.00000000000000,-0.00000000000000,-0.00000000000000));
#313=AXIS2_PLACEMENT_3D('',#310,#311,#312);
#314=PLANE('',#313);
#315=ADVANCED_FACE('',(#309),#314,.T.);
#316=CARTESIAN_POINT('',(6.91792926343135,10.3512126242655,-0.365000000000000));
#317=DIRECTION('',(0.00000000000000,0.00000000000000,1.00000000000000));
#318=VECTOR('',#317,1.00000000000000);
#319=LINE('',#316,#318);
#320=EDGE_CURVE('',#286,#25,#319,.T.);
#321=ORIENTED_EDGE('',*,*,#320,.T.);
#322=ORIENTED_EDGE('',*,*,#56,.F.);
#323=CARTESIAN_POINT('',(6.91792926343135,4.35121262426547,-0.365000000000000));
#324=DIRECTION('',(0.00000000000000,0.00000000000000,1.00000000000000));
#325=VECTOR('',#324,1.00000000000000);
#326=LINE('',#323,#325);
#327=EDGE_CURVE('',#294,#44,#326,.T.);
#328=ORIENTED_EDGE('',*,*,#327,.F.);
#329=ORIENTED_EDGE('',*,*,#299,.T.);
#330=EDGE_LOOP('',(#321,#322,#328,#329));
#331=FACE_OUTER_BOUND('',#330,.T.);
#332=CARTESIAN_POINT('',(6.91792926343135,4.35121262426547,2.22044604925031E-16));
#333=DIRECTION('',(1.00000000000000,0.00000000000000,0.00000000000000));
#334=DIRECTION('',(-0.00000000000000,-0.00000000000000,-1.00000000000000));
#335=AXIS2_PLACEMENT_3D('',#332,#333,#334);
#336=PLANE('',#335);
#337=ADVANCED_FACE('',(#331),#336,.T.);
#338=ORIENTED_EDGE('',*,*,#33,.F.);
#339=ORIENTED_EDGE('',*,*,#320,.F.);
#340=ORIENTED_EDGE('',*,*,#291,.F.);
#341=ORIENTED_EDGE('',*,*,#260,.F.);
#342=ORIENTED_EDGE('',*,*,#229,.F.);
#343=ORIENTED_EDGE('',*,*,#198,.F.);
#344=ORIENTED_EDGE('',*,*,#167,.F.);
#345=ORIENTED_EDGE('',*,*,#136,.F.);
#346=ORIENTED_EDGE('',*,*,#104,.F.);
#347=ORIENTED_EDGE('',*,*,#72,.F.);
#348=EDGE_LOOP('',(#338,#339,#340,#341,#342,#343,#344,#345,#346,#347));
#349=FACE_OUTER_BOUND('',#348,.T.);
#350=CARTESIAN_POINT('',(6.91792926343135,10.3512126242655,-0.137002750000000));
#351=DIRECTION('',(0.00000000000000,1.00000000000000,0.00000000000000));
#352=DIRECTION('',(-1.00000000000000,0.00000000000000,0.00000000000000));
#353=AXIS2_PLACEMENT_3D('',#350,#351,#352);
#354=PLANE('',#353);
#355=ADVANCED_FACE('',(#349),#354,.T.);
#356=ORIENTED_EDGE('',*,*,#327,.T.);
#357=ORIENTED_EDGE('',*,*,#50,.T.);
#358=ORIENTED_EDGE('',*,*,#86,.T.);
#359=ORIENTED_EDGE('',*,*,#119,.T.);
#360=ORIENTED_EDGE('',*,*,#150,.T.);
#361=ORIENTED_EDGE('',*,*,#181,.T.);
#362=ORIENTED_EDGE('',*,*,#212,.F.);
#363=ORIENTED_EDGE('',*,*,#243,.F.);
#364=ORIENTED_EDGE('',*,*,#274,.F.);
#365=ORIENTED_EDGE('',*,*,#305,.T.);
#366=EDGE_LOOP('',(#356,#357,#358,#359,#360,#361,#362,#363,#364,#365));
#367=FACE_OUTER_BOUND('',#366,.T.);
#368=CARTESIAN_POINT('',(6.91792926343135,4.35121262426547,-0.137002750000000));
#369=DIRECTION('',(0.00000000000000,1.00000000000000,-0.00000000000000));
#370=DIRECTION('',(-1.00000000000000,0.00000000000000,0.00000000000000));
#371=AXIS2_PLACEMENT_3D('',#368,#369,#370);
#372=PLANE('',#371);
#373=ADVANCED_FACE('',(#367),#372,.F.);
#374=CLOSED_SHELL('',(#65,#96,#129,#160,#191,#222,#253,#284,#315,#337,#355,#373));
#375=MANIFOLD_SOLID_BREP('',#374);
#376=COLOUR_RGB('',1.00000000000000,0.00000000000000,0.00000000000000);
#377=FILL_AREA_STYLE_COLOUR('',#376);
#378=FILL_AREA_STYLE('',(#377));
#379=SURFACE_STYLE_FILL_AREA(#378);
#380=SURFACE_SIDE_STYLE('',(#379));
#381=SURFACE_STYLE_USAGE(.BOTH.,#380);
#382=PRESENTATION_STYLE_ASSIGNMENT((#381));
#383=STYLED_ITEM('',(#382),#375);
#384=ADVANCED_BREP_SHAPE_REPRESENTATION('',(#375,#23),#18);
#385=PRODUCT('', '', ' ',(#2));
#386=PRODUCT_DEFINITION_FORMATION_WITH_SPECIFIED_SOURCE (' ', ' ', #385, .NOT_KNOWN.) ;
#387=PRODUCT_CATEGORY('part','') ;
#388=PRODUCT_RELATED_PRODUCT_CATEGORY('detail', ' ', (#385)) ;
#389=PRODUCT_CATEGORY_RELATIONSHIP(' ', ' ', #387, #388);
#390=PRODUCT_DEFINITION('', '', #386, #1);
#391=PRODUCT_DEFINITION_SHAPE('NONE', 'NONE', #390);
#392=SHAPE_DEFINITION_REPRESENTATION(#391, #384);
#393=PRESENTATION_LAYER_ASSIGNMENT('1','Unnamed [1]',(#375));
#394=MECHANICAL_DESIGN_GEOMETRIC_PRESENTATION_REPRESENTATION('',(#383), #18);
ENDSEC;
END-ISO-10303-21;
