ISO-10303-21;
HEADER;
FILE_DESCRIPTION((''),'2;1');
FILE_NAME('C:/Program Files/Kubotek/KeyCreatorPro.2021.SP0/STEP/SG1276.STP', '2021-02-23T13:27:04',(''), (''), 'KCM Version 2.0.6974.6974', 'KeyCreator Pro', '');
FILE_SCHEMA(('AUTOMOTIVE_DESIGN'));
ENDSEC;
DATA;
#1=PRODUCT_DEFINITION_CONTEXT('',#4,'design');
#2=PRODUCT_CONTEXT('',#4,'mechanical');
#3=APPLICATION_PROTOCOL_DEFINITION('International Standard','automotive_design',2001,#4);
#4=APPLICATION_CONTEXT('automotive design');
#10=DIMENSIONAL_EXPONENTS(1.0,0.0,0.0,0.0,0.0,0.0,0.0);
#11=DIMENSIONAL_EXPONENTS(0.0,0.0,0.0,0.0,0.0,0.0,0.0);
#12=(NAMED_UNIT(#10)LENGTH_UNIT()SI_UNIT(.MILLI.,.METRE.));
#13=(NAMED_UNIT(#11)PLANE_ANGLE_UNIT()SI_UNIT($,.RADIAN.));
#14=(NAMED_UNIT(#11)SOLID_ANGLE_UNIT()SI_UNIT($,.STERADIAN.));
#15=LENGTH_MEASURE_WITH_UNIT(LENGTH_MEASURE(25.4),#12);
#16= (CONVERSION_BASED_UNIT('INCH',#15)LENGTH_UNIT()NAMED_UNIT(#10));
#17=UNCERTAINTY_MEASURE_WITH_UNIT(LENGTH_MEASURE(1.0E-006),#16,'','');
#18=(GEOMETRIC_REPRESENTATION_CONTEXT(3)GLOBAL_UNCERTAINTY_ASSIGNED_CONTEXT((#17))GLOBAL_UNIT_ASSIGNED_CONTEXT((#16,#13,#14))REPRESENTATION_CONTEXT('NONE','WORKSPACE'));
#20=CARTESIAN_POINT('',(0.00000000000000,0.00000000000000,0.00000000000000));
#21=DIRECTION('',(0.00000000000000,0.00000000000000,1.00000000000000));
#22=DIRECTION('',(1.00000000000000,0.00000000000000,0.00000000000000));
#23=AXIS2_PLACEMENT_3D('',#20,#21,#22);
#24=CARTESIAN_POINT('',(3.00801949269512,12.1809505379278,-0.987500000000000));
#25=VERTEX_POINT('',#24);
#26=CARTESIAN_POINT('',(3.20801949269512,12.1809505379278,-1.18750000000000));
#27=VERTEX_POINT('',#26);
#28=CARTESIAN_POINT('',(3.20801949269512,12.1809505379278,-0.987500000000000));
#29=DIRECTION('',(0.00000000000000,-1.00000000000000,6.12323399573677E-17));
#30=DIRECTION('',(1.00000000000000,0.00000000000000,0.00000000000000));
#31=AXIS2_PLACEMENT_3D('',#28,#29,#30);
#32=CIRCLE('',#31,0.200000000000000);
#33=EDGE_CURVE('',#25,#27,#32,.T.);
#34=ORIENTED_EDGE('',*,*,#33,.T.);
#35=CARTESIAN_POINT('',(3.20801949269512,6.18095053792783,-1.18750000000000));
#36=VERTEX_POINT('',#35);
#37=CARTESIAN_POINT('',(3.20801949269512,6.18095053792783,-1.18750000000000));
#38=DIRECTION('',(0.00000000000000,1.00000000000000,0.00000000000000));
#39=VECTOR('',#38,1.00000000000000);
#40=LINE('',#37,#39);
#41=EDGE_CURVE('',#36,#27,#40,.T.);
#42=ORIENTED_EDGE('',*,*,#41,.F.);
#43=CARTESIAN_POINT('',(3.00801949269512,6.18095053792783,-0.987500000000000));
#44=VERTEX_POINT('',#43);
#45=CARTESIAN_POINT('',(3.20801949269512,6.18095053792783,-0.987500000000000));
#46=DIRECTION('',(0.00000000000000,-1.00000000000000,6.12323399573677E-17));
#47=DIRECTION('',(1.00000000000000,0.00000000000000,0.00000000000000));
#48=AXIS2_PLACEMENT_3D('',#45,#46,#47);
#49=CIRCLE('',#48,0.200000000000000);
#50=EDGE_CURVE('',#44,#36,#49,.T.);
#51=ORIENTED_EDGE('',*,*,#50,.F.);
#52=CARTESIAN_POINT('',(3.00801949269512,6.18095053792783,-0.987500000000000));
#53=DIRECTION('',(0.00000000000000,1.00000000000000,0.00000000000000));
#54=VECTOR('',#53,1.00000000000000);
#55=LINE('',#52,#54);
#56=EDGE_CURVE('',#44,#25,#55,.T.);
#57=ORIENTED_EDGE('',*,*,#56,.T.);
#58=EDGE_LOOP('',(#34,#42,#51,#57));
#59=FACE_OUTER_BOUND('',#58,.T.);
#60=CARTESIAN_POINT('',(3.20801949269512,6.18095053792783,-0.987500000000000));
#61=DIRECTION('',(0.00000000000000,1.00000000000000,0.00000000000000));
#62=DIRECTION('',(1.00000000000000,-0.00000000000000,0.00000000000000));
#63=AXIS2_PLACEMENT_3D('',#60,#61,#62);
#64=CYLINDRICAL_SURFACE('',#63,0.200000000000000);
#65=ADVANCED_FACE('',(#59),#64,.T.);
#66=CARTESIAN_POINT('',(6.00801949269512,12.1809505379278,-1.18750000000000));
#67=VERTEX_POINT('',#66);
#68=CARTESIAN_POINT('',(6.00801949269512,12.1809505379278,-1.18750000000000));
#69=DIRECTION('',(1.00000000000000,0.00000000000000,0.00000000000000));
#70=VECTOR('',#69,1.00000000000000);
#71=LINE('',#68,#70);
#72=EDGE_CURVE('',#27,#67,#71,.T.);
#73=ORIENTED_EDGE('',*,*,#72,.T.);
#74=CARTESIAN_POINT('',(6.00801949269512,6.18095053792783,-1.18750000000000));
#75=VERTEX_POINT('',#74);
#76=CARTESIAN_POINT('',(6.00801949269512,6.18095053792783,-1.18750000000000));
#77=DIRECTION('',(0.00000000000000,1.00000000000000,0.00000000000000));
#78=VECTOR('',#77,1.00000000000000);
#79=LINE('',#76,#78);
#80=EDGE_CURVE('',#75,#67,#79,.T.);
#81=ORIENTED_EDGE('',*,*,#80,.F.);
#82=CARTESIAN_POINT('',(6.00801949269512,6.18095053792783,-1.18750000000000));
#83=DIRECTION('',(-1.00000000000000,0.00000000000000,0.00000000000000));
#84=VECTOR('',#83,1.00000000000000);
#85=LINE('',#82,#84);
#86=EDGE_CURVE('',#75,#36,#85,.T.);
#87=ORIENTED_EDGE('',*,*,#86,.T.);
#88=ORIENTED_EDGE('',*,*,#41,.T.);
#89=EDGE_LOOP('',(#73,#81,#87,#88));
#90=FACE_OUTER_BOUND('',#89,.T.);
#91=CARTESIAN_POINT('',(4.60801949269512,6.18095053792783,-1.18750000000000));
#92=DIRECTION('',(0.00000000000000,0.00000000000000,-1.00000000000000));
#93=DIRECTION('',(-1.00000000000000,0.00000000000000,0.00000000000000));
#94=AXIS2_PLACEMENT_3D('',#91,#92,#93);
#95=PLANE('',#94);
#96=ADVANCED_FACE('',(#90),#95,.T.);
#97=CARTESIAN_POINT('',(6.00801949269512,12.1809505379278,-0.812500000000000));
#98=VERTEX_POINT('',#97);
#99=CARTESIAN_POINT('',(6.00801949269512,12.1809505379278,-1.18750000000000));
#100=DIRECTION('',(0.00000000000000,0.00000000000000,1.00000000000000));
#101=VECTOR('',#100,1.00000000000000);
#102=LINE('',#99,#101);
#103=EDGE_CURVE('',#67,#98,#102,.T.);
#104=ORIENTED_EDGE('',*,*,#103,.T.);
#105=CARTESIAN_POINT('',(6.00801949269512,6.18095053792783,-0.812500000000000));
#106=VERTEX_POINT('',#105);
#107=CARTESIAN_POINT('',(6.00801949269512,6.18095053792783,-0.812500000000000));
#108=DIRECTION('',(0.00000000000000,1.00000000000000,0.00000000000000));
#109=VECTOR('',#108,1.00000000000000);
#110=LINE('',#107,#109);
#111=EDGE_CURVE('',#106,#98,#110,.T.);
#112=ORIENTED_EDGE('',*,*,#111,.F.);
#113=CARTESIAN_POINT('',(6.00801949269512,6.18095053792783,-1.18750000000000));
#114=DIRECTION('',(0.00000000000000,0.00000000000000,1.00000000000000));
#115=VECTOR('',#114,1.00000000000000);
#116=LINE('',#113,#115);
#117=EDGE_CURVE('',#75,#106,#116,.T.);
#118=ORIENTED_EDGE('',*,*,#117,.F.);
#119=ORIENTED_EDGE('',*,*,#80,.T.);
#120=EDGE_LOOP('',(#104,#112,#118,#119));
#121=FACE_OUTER_BOUND('',#120,.T.);
#122=CARTESIAN_POINT('',(6.00801949269512,6.18095053792783,-1.00000000000000));
#123=DIRECTION('',(1.00000000000000,0.00000000000000,0.00000000000000));
#124=DIRECTION('',(-0.00000000000000,-0.00000000000000,-1.00000000000000));
#125=AXIS2_PLACEMENT_3D('',#122,#123,#124);
#126=PLANE('',#125);
#127=ADVANCED_FACE('',(#121),#126,.T.);
#128=CARTESIAN_POINT('',(3.38301949269512,12.1809505379278,-0.812500000000000));
#129=VERTEX_POINT('',#128);
#130=CARTESIAN_POINT('',(6.00801949269512,12.1809505379278,-0.812500000000000));
#131=DIRECTION('',(-1.00000000000000,0.00000000000000,0.00000000000000));
#132=VECTOR('',#131,1.00000000000000);
#133=LINE('',#130,#132);
#134=EDGE_CURVE('',#98,#129,#133,.T.);
#135=ORIENTED_EDGE('',*,*,#134,.T.);
#136=CARTESIAN_POINT('',(3.38301949269512,6.18095053792783,-0.812500000000000));
#137=VERTEX_POINT('',#136);
#138=CARTESIAN_POINT('',(3.38301949269512,6.18095053792783,-0.812500000000000));
#139=DIRECTION('',(0.00000000000000,1.00000000000000,0.00000000000000));
#140=VECTOR('',#139,1.00000000000000);
#141=LINE('',#138,#140);
#142=EDGE_CURVE('',#137,#129,#141,.T.);
#143=ORIENTED_EDGE('',*,*,#142,.F.);
#144=CARTESIAN_POINT('',(6.00801949269512,6.18095053792783,-0.812500000000000));
#145=DIRECTION('',(-1.00000000000000,0.00000000000000,0.00000000000000));
#146=VECTOR('',#145,1.00000000000000);
#147=LINE('',#144,#146);
#148=EDGE_CURVE('',#106,#137,#147,.T.);
#149=ORIENTED_EDGE('',*,*,#148,.F.);
#150=ORIENTED_EDGE('',*,*,#111,.T.);
#151=EDGE_LOOP('',(#135,#143,#149,#150));
#152=FACE_OUTER_BOUND('',#151,.T.);
#153=CARTESIAN_POINT('',(4.69551949269512,6.18095053792783,-0.812500000000000));
#154=DIRECTION('',(0.00000000000000,-0.00000000000000,1.00000000000000));
#155=DIRECTION('',(1.00000000000000,-0.00000000000000,-0.00000000000000));
#156=AXIS2_PLACEMENT_3D('',#153,#154,#155);
#157=PLANE('',#156);
#158=ADVANCED_FACE('',(#152),#157,.T.);
#159=CARTESIAN_POINT('',(3.38301949269512,12.1809505379278,0.812500000000000));
#160=VERTEX_POINT('',#159);
#161=CARTESIAN_POINT('',(3.38301949269512,12.1809505379278,-0.812500000000000));
#162=DIRECTION('',(0.00000000000000,0.00000000000000,1.00000000000000));
#163=VECTOR('',#162,1.00000000000000);
#164=LINE('',#161,#163);
#165=EDGE_CURVE('',#129,#160,#164,.T.);
#166=ORIENTED_EDGE('',*,*,#165,.T.);
#167=CARTESIAN_POINT('',(3.38301949269512,6.18095053792783,0.812500000000000));
#168=VERTEX_POINT('',#167);
#169=CARTESIAN_POINT('',(3.38301949269512,6.18095053792783,0.812500000000000));
#170=DIRECTION('',(0.00000000000000,1.00000000000000,0.00000000000000));
#171=VECTOR('',#170,1.00000000000000);
#172=LINE('',#169,#171);
#173=EDGE_CURVE('',#168,#160,#172,.T.);
#174=ORIENTED_EDGE('',*,*,#173,.F.);
#175=CARTESIAN_POINT('',(3.38301949269512,6.18095053792783,-0.812500000000000));
#176=DIRECTION('',(0.00000000000000,0.00000000000000,1.00000000000000));
#177=VECTOR('',#176,1.00000000000000);
#178=LINE('',#175,#177);
#179=EDGE_CURVE('',#137,#168,#178,.T.);
#180=ORIENTED_EDGE('',*,*,#179,.F.);
#181=ORIENTED_EDGE('',*,*,#142,.T.);
#182=EDGE_LOOP('',(#166,#174,#180,#181));
#183=FACE_OUTER_BOUND('',#182,.T.);
#184=CARTESIAN_POINT('',(3.38301949269512,6.18095053792783,0.00000000000000));
#185=DIRECTION('',(1.00000000000000,0.00000000000000,0.00000000000000));
#186=DIRECTION('',(-0.00000000000000,-0.00000000000000,-1.00000000000000));
#187=AXIS2_PLACEMENT_3D('',#184,#185,#186);
#188=PLANE('',#187);
#189=ADVANCED_FACE('',(#183),#188,.T.);
#190=CARTESIAN_POINT('',(3.00801949269512,12.1809505379278,0.812500000000000));
#191=VERTEX_POINT('',#190);
#192=CARTESIAN_POINT('',(3.38301949269512,12.1809505379278,0.812500000000000));
#193=DIRECTION('',(-1.00000000000000,0.00000000000000,0.00000000000000));
#194=VECTOR('',#193,1.00000000000000);
#195=LINE('',#192,#194);
#196=EDGE_CURVE('',#160,#191,#195,.T.);
#197=ORIENTED_EDGE('',*,*,#196,.T.);
#198=CARTESIAN_POINT('',(3.00801949269512,6.18095053792783,0.812500000000000));
#199=VERTEX_POINT('',#198);
#200=CARTESIAN_POINT('',(3.00801949269512,6.18095053792783,0.812500000000000));
#201=DIRECTION('',(0.00000000000000,1.00000000000000,0.00000000000000));
#202=VECTOR('',#201,1.00000000000000);
#203=LINE('',#200,#202);
#204=EDGE_CURVE('',#199,#191,#203,.T.);
#205=ORIENTED_EDGE('',*,*,#204,.F.);
#206=CARTESIAN_POINT('',(3.38301949269512,6.18095053792783,0.812500000000000));
#207=DIRECTION('',(-1.00000000000000,0.00000000000000,0.00000000000000));
#208=VECTOR('',#207,1.00000000000000);
#209=LINE('',#206,#208);
#210=EDGE_CURVE('',#168,#199,#209,.T.);
#211=ORIENTED_EDGE('',*,*,#210,.F.);
#212=ORIENTED_EDGE('',*,*,#173,.T.);
#213=EDGE_LOOP('',(#197,#205,#211,#212));
#214=FACE_OUTER_BOUND('',#213,.T.);
#215=CARTESIAN_POINT('',(3.19551949269512,6.18095053792783,0.812500000000000));
#216=DIRECTION('',(0.00000000000000,-0.00000000000000,1.00000000000000));
#217=DIRECTION('',(1.00000000000000,-0.00000000000000,-0.00000000000000));
#218=AXIS2_PLACEMENT_3D('',#215,#216,#217);
#219=PLANE('',#218);
#220=ADVANCED_FACE('',(#214),#219,.T.);
#221=CARTESIAN_POINT('',(3.00801949269512,12.1809505379278,-0.987500000000000));
#222=DIRECTION('',(-0.00000000000000,-0.00000000000000,-1.00000000000000));
#223=VECTOR('',#222,1.00000000000000);
#224=LINE('',#221,#223);
#225=EDGE_CURVE('',#191,#25,#224,.T.);
#226=ORIENTED_EDGE('',*,*,#225,.T.);
#227=ORIENTED_EDGE('',*,*,#56,.F.);
#228=CARTESIAN_POINT('',(3.00801949269512,6.18095053792783,-0.987500000000000));
#229=DIRECTION('',(0.00000000000000,0.00000000000000,1.00000000000000));
#230=VECTOR('',#229,1.00000000000000);
#231=LINE('',#228,#230);
#232=EDGE_CURVE('',#44,#199,#231,.T.);
#233=ORIENTED_EDGE('',*,*,#232,.T.);
#234=ORIENTED_EDGE('',*,*,#204,.T.);
#235=EDGE_LOOP('',(#226,#227,#233,#234));
#236=FACE_OUTER_BOUND('',#235,.T.);
#237=CARTESIAN_POINT('',(3.00801949269512,6.18095053792783,-0.0874999999999999));
#238=DIRECTION('',(-1.00000000000000,0.00000000000000,0.00000000000000));
#239=DIRECTION('',(0.00000000000000,0.00000000000000,1.00000000000000));
#240=AXIS2_PLACEMENT_3D('',#237,#238,#239);
#241=PLANE('',#240);
#242=ADVANCED_FACE('',(#236),#241,.T.);
#243=ORIENTED_EDGE('',*,*,#33,.F.);
#244=ORIENTED_EDGE('',*,*,#225,.F.);
#245=ORIENTED_EDGE('',*,*,#196,.F.);
#246=ORIENTED_EDGE('',*,*,#165,.F.);
#247=ORIENTED_EDGE('',*,*,#134,.F.);
#248=ORIENTED_EDGE('',*,*,#103,.F.);
#249=ORIENTED_EDGE('',*,*,#72,.F.);
#250=EDGE_LOOP('',(#243,#244,#245,#246,#247,#248,#249));
#251=FACE_OUTER_BOUND('',#250,.T.);
#252=CARTESIAN_POINT('',(3.00801949269512,12.1809505379278,-0.425315000000000));
#253=DIRECTION('',(0.00000000000000,1.00000000000000,0.00000000000000));
#254=DIRECTION('',(-1.00000000000000,0.00000000000000,0.00000000000000));
#255=AXIS2_PLACEMENT_3D('',#252,#253,#254);
#256=PLANE('',#255);
#257=ADVANCED_FACE('',(#251),#256,.T.);
#258=ORIENTED_EDGE('',*,*,#232,.F.);
#259=ORIENTED_EDGE('',*,*,#50,.T.);
#260=ORIENTED_EDGE('',*,*,#86,.F.);
#261=ORIENTED_EDGE('',*,*,#117,.T.);
#262=ORIENTED_EDGE('',*,*,#148,.T.);
#263=ORIENTED_EDGE('',*,*,#179,.T.);
#264=ORIENTED_EDGE('',*,*,#210,.T.);
#265=EDGE_LOOP('',(#258,#259,#260,#261,#262,#263,#264));
#266=FACE_OUTER_BOUND('',#265,.T.);
#267=CARTESIAN_POINT('',(3.00801949269512,6.18095053792783,-0.425315000000000));
#268=DIRECTION('',(-0.00000000000000,1.00000000000000,0.00000000000000));
#269=DIRECTION('',(-1.00000000000000,-0.00000000000000,0.00000000000000));
#270=AXIS2_PLACEMENT_3D('',#267,#268,#269);
#271=PLANE('',#270);
#272=ADVANCED_FACE('',(#266),#271,.F.);
#273=CLOSED_SHELL('',(#65,#96,#127,#158,#189,#220,#242,#257,#272));
#274=MANIFOLD_SOLID_BREP('',#273);
#275=COLOUR_RGB('',1.00000000000000,0.00000000000000,0.00000000000000);
#276=FILL_AREA_STYLE_COLOUR('',#275);
#277=FILL_AREA_STYLE('',(#276));
#278=SURFACE_STYLE_FILL_AREA(#277);
#279=SURFACE_SIDE_STYLE('',(#278));
#280=SURFACE_STYLE_USAGE(.BOTH.,#279);
#281=PRESENTATION_STYLE_ASSIGNMENT((#280));
#282=STYLED_ITEM('',(#281),#274);
#283=ADVANCED_BREP_SHAPE_REPRESENTATION('',(#274,#23),#18);
#284=PRODUCT('', '', ' ',(#2));
#285=PRODUCT_DEFINITION_FORMATION_WITH_SPECIFIED_SOURCE (' ', ' ', #284, .NOT_KNOWN.) ;
#286=PRODUCT_CATEGORY('part','') ;
#287=PRODUCT_RELATED_PRODUCT_CATEGORY('detail', ' ', (#284)) ;
#288=PRODUCT_CATEGORY_RELATIONSHIP(' ', ' ', #286, #287);
#289=PRODUCT_DEFINITION('', '', #285, #1);
#290=PRODUCT_DEFINITION_SHAPE('NONE', 'NONE', #289);
#291=SHAPE_DEFINITION_REPRESENTATION(#290, #283);
#292=PRESENTATION_LAYER_ASSIGNMENT('1','Unnamed [1]',(#274));
#293=MECHANICAL_DESIGN_GEOMETRIC_PRESENTATION_REPRESENTATION('',(#282), #18);
ENDSEC;
END-ISO-10303-21;
