ISO-10303-21;
HEADER;
FILE_DESCRIPTION((''),'2;1');
FILE_NAME('C:/Program Files/Kubotek/KeyCreatorPro.2021.SP0/STEP/SG1164.STP', '2021-02-04T21:24:29',(''), (''), 'KCM Version 2.0.6974.6974', 'KeyCreator Pro', '');
FILE_SCHEMA(('AUTOMOTIVE_DESIGN'));
ENDSEC;
DATA;
#1=PRODUCT_DEFINITION_CONTEXT('',#4,'design');
#2=PRODUCT_CONTEXT('',#4,'mechanical');
#3=APPLICATION_PROTOCOL_DEFINITION('International Standard','automotive_design',2001,#4);
#4=APPLICATION_CONTEXT('automotive design');
#10=DIMENSIONAL_EXPONENTS(1.0,0.0,0.0,0.0,0.0,0.0,0.0);
#11=DIMENSIONAL_EXPONENTS(0.0,0.0,0.0,0.0,0.0,0.0,0.0);
#12=(NAMED_UNIT(#10)LENGTH_UNIT()SI_UNIT(.MILLI.,.METRE.));
#13=(NAMED_UNIT(#11)PLANE_ANGLE_UNIT()SI_UNIT($,.RADIAN.));
#14=(NAMED_UNIT(#11)SOLID_ANGLE_UNIT()SI_UNIT($,.STERADIAN.));
#15=LENGTH_MEASURE_WITH_UNIT(LENGTH_MEASURE(25.4),#12);
#16= (CONVERSION_BASED_UNIT('INCH',#15)LENGTH_UNIT()NAMED_UNIT(#10));
#17=UNCERTAINTY_MEASURE_WITH_UNIT(LENGTH_MEASURE(1.0E-006),#16,'','');
#18=(GEOMETRIC_REPRESENTATION_CONTEXT(3)GLOBAL_UNCERTAINTY_ASSIGNED_CONTEXT((#17))GLOBAL_UNIT_ASSIGNED_CONTEXT((#16,#13,#14))REPRESENTATION_CONTEXT('NONE','WORKSPACE'));
#20=CARTESIAN_POINT('',(0.00000000000000,0.00000000000000,0.00000000000000));
#21=DIRECTION('',(0.00000000000000,0.00000000000000,1.00000000000000));
#22=DIRECTION('',(1.00000000000000,0.00000000000000,0.00000000000000));
#23=AXIS2_PLACEMENT_3D('',#20,#21,#22);
#24=CARTESIAN_POINT('',(5.63352903241563,10.3606792352930,0.454999999999999));
#25=VERTEX_POINT('',#24);
#26=CARTESIAN_POINT('',(5.63352903241563,10.3606792352930,-0.505000000000001));
#27=VERTEX_POINT('',#26);
#28=CARTESIAN_POINT('',(5.63352903241563,10.3606792352930,-0.505000000000001));
#29=DIRECTION('',(-0.00000000000000,-0.00000000000000,-1.00000000000000));
#30=VECTOR('',#29,1.00000000000000);
#31=LINE('',#28,#30);
#32=EDGE_CURVE('',#25,#27,#31,.T.);
#33=ORIENTED_EDGE('',*,*,#32,.T.);
#34=CARTESIAN_POINT('',(5.63352903241563,4.36067923529298,-0.505000000000001));
#35=VERTEX_POINT('',#34);
#36=CARTESIAN_POINT('',(5.63352903241563,4.36067923529298,-0.505000000000001));
#37=DIRECTION('',(0.00000000000000,1.00000000000000,0.00000000000000));
#38=VECTOR('',#37,1.00000000000000);
#39=LINE('',#36,#38);
#40=EDGE_CURVE('',#35,#27,#39,.T.);
#41=ORIENTED_EDGE('',*,*,#40,.F.);
#42=CARTESIAN_POINT('',(5.63352903241563,4.36067923529298,0.454999999999999));
#43=VERTEX_POINT('',#42);
#44=CARTESIAN_POINT('',(5.63352903241563,4.36067923529298,-0.505000000000001));
#45=DIRECTION('',(0.00000000000000,0.00000000000000,1.00000000000000));
#46=VECTOR('',#45,1.00000000000000);
#47=LINE('',#44,#46);
#48=EDGE_CURVE('',#35,#43,#47,.T.);
#49=ORIENTED_EDGE('',*,*,#48,.T.);
#50=CARTESIAN_POINT('',(5.63352903241563,4.36067923529298,0.454999999999999));
#51=DIRECTION('',(0.00000000000000,1.00000000000000,0.00000000000000));
#52=VECTOR('',#51,1.00000000000000);
#53=LINE('',#50,#52);
#54=EDGE_CURVE('',#43,#25,#53,.T.);
#55=ORIENTED_EDGE('',*,*,#54,.T.);
#56=EDGE_LOOP('',(#33,#41,#49,#55));
#57=FACE_OUTER_BOUND('',#56,.T.);
#58=CARTESIAN_POINT('',(5.63352903241563,4.36067923529298,-0.0250000000000008));
#59=DIRECTION('',(-1.00000000000000,0.00000000000000,0.00000000000000));
#60=DIRECTION('',(0.00000000000000,0.00000000000000,1.00000000000000));
#61=AXIS2_PLACEMENT_3D('',#58,#59,#60);
#62=PLANE('',#61);
#63=ADVANCED_FACE('',(#57),#62,.T.);
#64=CARTESIAN_POINT('',(5.71352903241563,10.3606792352930,-0.505000000000001));
#65=VERTEX_POINT('',#64);
#66=CARTESIAN_POINT('',(5.67352903241563,10.3606792352930,-0.505000000000001));
#67=DIRECTION('',(0.00000000000000,-1.00000000000000,6.12323399573677E-17));
#68=DIRECTION('',(1.00000000000000,0.00000000000000,0.00000000000000));
#69=AXIS2_PLACEMENT_3D('',#66,#67,#68);
#70=CIRCLE('',#69,0.0400000000000000);
#71=EDGE_CURVE('',#27,#65,#70,.T.);
#72=ORIENTED_EDGE('',*,*,#71,.T.);
#73=CARTESIAN_POINT('',(5.71352903241563,4.36067923529298,-0.505000000000001));
#74=VERTEX_POINT('',#73);
#75=CARTESIAN_POINT('',(5.71352903241563,4.36067923529298,-0.505000000000001));
#76=DIRECTION('',(0.00000000000000,1.00000000000000,0.00000000000000));
#77=VECTOR('',#76,1.00000000000000);
#78=LINE('',#75,#77);
#79=EDGE_CURVE('',#74,#65,#78,.T.);
#80=ORIENTED_EDGE('',*,*,#79,.F.);
#81=CARTESIAN_POINT('',(5.67352903241563,4.36067923529298,-0.505000000000001));
#82=DIRECTION('',(0.00000000000000,-1.00000000000000,6.12323399573677E-17));
#83=DIRECTION('',(1.00000000000000,0.00000000000000,0.00000000000000));
#84=AXIS2_PLACEMENT_3D('',#81,#82,#83);
#85=CIRCLE('',#84,0.0400000000000000);
#86=EDGE_CURVE('',#35,#74,#85,.T.);
#87=ORIENTED_EDGE('',*,*,#86,.F.);
#88=ORIENTED_EDGE('',*,*,#40,.T.);
#89=EDGE_LOOP('',(#72,#80,#87,#88));
#90=FACE_OUTER_BOUND('',#89,.T.);
#91=CARTESIAN_POINT('',(5.67352903241563,4.36067923529298,-0.505000000000001));
#92=DIRECTION('',(0.00000000000000,1.00000000000000,0.00000000000000));
#93=DIRECTION('',(0.00000000000000,0.00000000000000,1.00000000000000));
#94=AXIS2_PLACEMENT_3D('',#91,#92,#93);
#95=CYLINDRICAL_SURFACE('',#94,0.0400000000000000);
#96=ADVANCED_FACE('',(#90),#95,.T.);
#97=CARTESIAN_POINT('',(5.71352903241563,10.3606792352930,0.505000000000001));
#98=VERTEX_POINT('',#97);
#99=CARTESIAN_POINT('',(5.71352903241563,10.3606792352930,-0.505000000000001));
#100=DIRECTION('',(0.00000000000000,0.00000000000000,1.00000000000000));
#101=VECTOR('',#100,1.00000000000000);
#102=LINE('',#99,#101);
#103=EDGE_CURVE('',#65,#98,#102,.T.);
#104=ORIENTED_EDGE('',*,*,#103,.T.);
#105=CARTESIAN_POINT('',(5.71352903241563,4.36067923529298,0.505000000000001));
#106=VERTEX_POINT('',#105);
#107=CARTESIAN_POINT('',(5.71352903241563,4.36067923529298,0.505000000000001));
#108=DIRECTION('',(0.00000000000000,1.00000000000000,0.00000000000000));
#109=VECTOR('',#108,1.00000000000000);
#110=LINE('',#107,#109);
#111=EDGE_CURVE('',#106,#98,#110,.T.);
#112=ORIENTED_EDGE('',*,*,#111,.F.);
#113=CARTESIAN_POINT('',(5.71352903241563,4.36067923529298,-0.505000000000001));
#114=DIRECTION('',(0.00000000000000,0.00000000000000,1.00000000000000));
#115=VECTOR('',#114,1.00000000000000);
#116=LINE('',#113,#115);
#117=EDGE_CURVE('',#74,#106,#116,.T.);
#118=ORIENTED_EDGE('',*,*,#117,.F.);
#119=ORIENTED_EDGE('',*,*,#79,.T.);
#120=EDGE_LOOP('',(#104,#112,#118,#119));
#121=FACE_OUTER_BOUND('',#120,.T.);
#122=CARTESIAN_POINT('',(5.71352903241563,4.36067923529298,0.00000000000000));
#123=DIRECTION('',(1.00000000000000,0.00000000000000,0.00000000000000));
#124=DIRECTION('',(-0.00000000000000,-0.00000000000000,-1.00000000000000));
#125=AXIS2_PLACEMENT_3D('',#122,#123,#124);
#126=PLANE('',#125);
#127=ADVANCED_FACE('',(#121),#126,.T.);
#128=CARTESIAN_POINT('',(5.68352903241563,10.3606792352930,0.535000000000001));
#129=VERTEX_POINT('',#128);
#130=CARTESIAN_POINT('',(5.68352903241563,10.3606792352930,0.505000000000001));
#131=DIRECTION('',(0.00000000000000,-1.00000000000000,6.12323399573677E-17));
#132=DIRECTION('',(1.00000000000000,0.00000000000000,0.00000000000000));
#133=AXIS2_PLACEMENT_3D('',#130,#131,#132);
#134=CIRCLE('',#133,0.0300000000000000);
#135=EDGE_CURVE('',#98,#129,#134,.T.);
#136=ORIENTED_EDGE('',*,*,#135,.T.);
#137=CARTESIAN_POINT('',(5.68352903241563,4.36067923529298,0.535000000000001));
#138=VERTEX_POINT('',#137);
#139=CARTESIAN_POINT('',(5.68352903241563,4.36067923529298,0.535000000000001));
#140=DIRECTION('',(0.00000000000000,1.00000000000000,0.00000000000000));
#141=VECTOR('',#140,1.00000000000000);
#142=LINE('',#139,#141);
#143=EDGE_CURVE('',#138,#129,#142,.T.);
#144=ORIENTED_EDGE('',*,*,#143,.F.);
#145=CARTESIAN_POINT('',(5.68352903241563,4.36067923529298,0.505000000000001));
#146=DIRECTION('',(0.00000000000000,-1.00000000000000,6.12323399573677E-17));
#147=DIRECTION('',(1.00000000000000,0.00000000000000,0.00000000000000));
#148=AXIS2_PLACEMENT_3D('',#145,#146,#147);
#149=CIRCLE('',#148,0.0300000000000000);
#150=EDGE_CURVE('',#106,#138,#149,.T.);
#151=ORIENTED_EDGE('',*,*,#150,.F.);
#152=ORIENTED_EDGE('',*,*,#111,.T.);
#153=EDGE_LOOP('',(#136,#144,#151,#152));
#154=FACE_OUTER_BOUND('',#153,.T.);
#155=CARTESIAN_POINT('',(5.68352903241563,4.36067923529298,0.505000000000001));
#156=DIRECTION('',(0.00000000000000,1.00000000000000,0.00000000000000));
#157=DIRECTION('',(-0.707106781186552,0.00000000000000,-0.707106781186543));
#158=AXIS2_PLACEMENT_3D('',#155,#156,#157);
#159=CYLINDRICAL_SURFACE('',#158,0.0300000000000000);
#160=ADVANCED_FACE('',(#154),#159,.T.);
#161=CARTESIAN_POINT('',(5.26852903241563,10.3606792352930,0.535000000000001));
#162=VERTEX_POINT('',#161);
#163=CARTESIAN_POINT('',(5.68352903241563,10.3606792352930,0.534999999999999));
#164=DIRECTION('',(-1.00000000000000,0.00000000000000,0.00000000000000));
#165=VECTOR('',#164,1.00000000000000);
#166=LINE('',#163,#165);
#167=EDGE_CURVE('',#129,#162,#166,.T.);
#168=ORIENTED_EDGE('',*,*,#167,.T.);
#169=CARTESIAN_POINT('',(5.26852903241563,4.36067923529298,0.535000000000001));
#170=VERTEX_POINT('',#169);
#171=CARTESIAN_POINT('',(5.26852903241563,4.36067923529298,0.535000000000001));
#172=DIRECTION('',(0.00000000000000,1.00000000000000,0.00000000000000));
#173=VECTOR('',#172,1.00000000000000);
#174=LINE('',#171,#173);
#175=EDGE_CURVE('',#170,#162,#174,.T.);
#176=ORIENTED_EDGE('',*,*,#175,.F.);
#177=CARTESIAN_POINT('',(5.68352903241563,4.36067923529298,0.534999999999999));
#178=DIRECTION('',(-1.00000000000000,0.00000000000000,0.00000000000000));
#179=VECTOR('',#178,1.00000000000000);
#180=LINE('',#177,#179);
#181=EDGE_CURVE('',#138,#170,#180,.T.);
#182=ORIENTED_EDGE('',*,*,#181,.F.);
#183=ORIENTED_EDGE('',*,*,#143,.T.);
#184=EDGE_LOOP('',(#168,#176,#182,#183));
#185=FACE_OUTER_BOUND('',#184,.T.);
#186=CARTESIAN_POINT('',(5.47602903241563,4.36067923529298,0.534999999999999));
#187=DIRECTION('',(0.00000000000000,-0.00000000000000,1.00000000000000));
#188=DIRECTION('',(1.00000000000000,-0.00000000000000,-0.00000000000000));
#189=AXIS2_PLACEMENT_3D('',#186,#187,#188);
#190=PLANE('',#189);
#191=ADVANCED_FACE('',(#185),#190,.T.);
#192=CARTESIAN_POINT('',(5.23852903241563,10.3606792352930,0.505000000000001));
#193=VERTEX_POINT('',#192);
#194=CARTESIAN_POINT('',(5.26852903241563,10.3606792352930,0.505000000000001));
#195=DIRECTION('',(0.00000000000000,-1.00000000000000,6.12323399573677E-17));
#196=DIRECTION('',(1.00000000000000,0.00000000000000,0.00000000000000));
#197=AXIS2_PLACEMENT_3D('',#194,#195,#196);
#198=CIRCLE('',#197,0.0300000000000000);
#199=EDGE_CURVE('',#162,#193,#198,.T.);
#200=ORIENTED_EDGE('',*,*,#199,.T.);
#201=CARTESIAN_POINT('',(5.23852903241563,4.36067923529298,0.505000000000001));
#202=VERTEX_POINT('',#201);
#203=CARTESIAN_POINT('',(5.23852903241563,4.36067923529298,0.505000000000001));
#204=DIRECTION('',(0.00000000000000,1.00000000000000,0.00000000000000));
#205=VECTOR('',#204,1.00000000000000);
#206=LINE('',#203,#205);
#207=EDGE_CURVE('',#202,#193,#206,.T.);
#208=ORIENTED_EDGE('',*,*,#207,.F.);
#209=CARTESIAN_POINT('',(5.26852903241563,4.36067923529298,0.505000000000001));
#210=DIRECTION('',(0.00000000000000,-1.00000000000000,6.12323399573677E-17));
#211=DIRECTION('',(1.00000000000000,0.00000000000000,0.00000000000000));
#212=AXIS2_PLACEMENT_3D('',#209,#210,#211);
#213=CIRCLE('',#212,0.0300000000000000);
#214=EDGE_CURVE('',#170,#202,#213,.T.);
#215=ORIENTED_EDGE('',*,*,#214,.F.);
#216=ORIENTED_EDGE('',*,*,#175,.T.);
#217=EDGE_LOOP('',(#200,#208,#215,#216));
#218=FACE_OUTER_BOUND('',#217,.T.);
#219=CARTESIAN_POINT('',(5.26852903241563,4.36067923529298,0.505000000000001));
#220=DIRECTION('',(0.00000000000000,1.00000000000000,0.00000000000000));
#221=DIRECTION('',(1.00000000000000,-0.00000000000000,0.00000000000000));
#222=AXIS2_PLACEMENT_3D('',#219,#220,#221);
#223=CYLINDRICAL_SURFACE('',#222,0.0300000000000000);
#224=ADVANCED_FACE('',(#218),#223,.T.);
#225=CARTESIAN_POINT('',(5.23852903241563,10.3606792352930,-0.505000000000001));
#226=VERTEX_POINT('',#225);
#227=CARTESIAN_POINT('',(5.23852903241563,10.3606792352930,0.505000000000001));
#228=DIRECTION('',(0.00000000000000,0.00000000000000,-1.00000000000000));
#229=VECTOR('',#228,1.00000000000000);
#230=LINE('',#227,#229);
#231=EDGE_CURVE('',#193,#226,#230,.T.);
#232=ORIENTED_EDGE('',*,*,#231,.T.);
#233=CARTESIAN_POINT('',(5.23852903241563,4.36067923529298,-0.505000000000001));
#234=VERTEX_POINT('',#233);
#235=CARTESIAN_POINT('',(5.23852903241563,4.36067923529298,-0.505000000000001));
#236=DIRECTION('',(0.00000000000000,1.00000000000000,0.00000000000000));
#237=VECTOR('',#236,1.00000000000000);
#238=LINE('',#235,#237);
#239=EDGE_CURVE('',#234,#226,#238,.T.);
#240=ORIENTED_EDGE('',*,*,#239,.F.);
#241=CARTESIAN_POINT('',(5.23852903241563,4.36067923529298,0.505000000000001));
#242=DIRECTION('',(0.00000000000000,0.00000000000000,-1.00000000000000));
#243=VECTOR('',#242,1.00000000000000);
#244=LINE('',#241,#243);
#245=EDGE_CURVE('',#202,#234,#244,.T.);
#246=ORIENTED_EDGE('',*,*,#245,.F.);
#247=ORIENTED_EDGE('',*,*,#207,.T.);
#248=EDGE_LOOP('',(#232,#240,#246,#247));
#249=FACE_OUTER_BOUND('',#248,.T.);
#250=CARTESIAN_POINT('',(5.23852903241563,4.36067923529298,0.00000000000000));
#251=DIRECTION('',(-1.00000000000000,0.00000000000000,0.00000000000000));
#252=DIRECTION('',(-0.00000000000000,-0.00000000000000,1.00000000000000));
#253=AXIS2_PLACEMENT_3D('',#250,#251,#252);
#254=PLANE('',#253);
#255=ADVANCED_FACE('',(#249),#254,.T.);
#256=CARTESIAN_POINT('',(5.31852903241563,10.3606792352930,-0.505000000000001));
#257=VERTEX_POINT('',#256);
#258=CARTESIAN_POINT('',(5.27852903241563,10.3606792352930,-0.505000000000001));
#259=DIRECTION('',(0.00000000000000,-1.00000000000000,6.12323399573677E-17));
#260=DIRECTION('',(1.00000000000000,0.00000000000000,0.00000000000000));
#261=AXIS2_PLACEMENT_3D('',#258,#259,#260);
#262=CIRCLE('',#261,0.0400000000000000);
#263=EDGE_CURVE('',#226,#257,#262,.T.);
#264=ORIENTED_EDGE('',*,*,#263,.T.);
#265=CARTESIAN_POINT('',(5.31852903241563,4.36067923529298,-0.505000000000001));
#266=VERTEX_POINT('',#265);
#267=CARTESIAN_POINT('',(5.31852903241563,4.36067923529298,-0.505000000000001));
#268=DIRECTION('',(0.00000000000000,1.00000000000000,0.00000000000000));
#269=VECTOR('',#268,1.00000000000000);
#270=LINE('',#267,#269);
#271=EDGE_CURVE('',#266,#257,#270,.T.);
#272=ORIENTED_EDGE('',*,*,#271,.F.);
#273=CARTESIAN_POINT('',(5.27852903241563,4.36067923529298,-0.505000000000001));
#274=DIRECTION('',(0.00000000000000,-1.00000000000000,6.12323399573677E-17));
#275=DIRECTION('',(1.00000000000000,0.00000000000000,0.00000000000000));
#276=AXIS2_PLACEMENT_3D('',#273,#274,#275);
#277=CIRCLE('',#276,0.0400000000000000);
#278=EDGE_CURVE('',#234,#266,#277,.T.);
#279=ORIENTED_EDGE('',*,*,#278,.F.);
#280=ORIENTED_EDGE('',*,*,#239,.T.);
#281=EDGE_LOOP('',(#264,#272,#279,#280));
#282=FACE_OUTER_BOUND('',#281,.T.);
#283=CARTESIAN_POINT('',(5.27852903241563,4.36067923529298,-0.505000000000001));
#284=DIRECTION('',(0.00000000000000,1.00000000000000,0.00000000000000));
#285=DIRECTION('',(0.00000000000000,0.00000000000000,1.00000000000000));
#286=AXIS2_PLACEMENT_3D('',#283,#284,#285);
#287=CYLINDRICAL_SURFACE('',#286,0.0400000000000000);
#288=ADVANCED_FACE('',(#282),#287,.T.);
#289=CARTESIAN_POINT('',(5.31852903241563,10.3606792352930,0.454999999999999));
#290=VERTEX_POINT('',#289);
#291=CARTESIAN_POINT('',(5.31852903241563,10.3606792352930,0.454999999999999));
#292=DIRECTION('',(0.00000000000000,0.00000000000000,1.00000000000000));
#293=VECTOR('',#292,1.00000000000000);
#294=LINE('',#291,#293);
#295=EDGE_CURVE('',#257,#290,#294,.T.);
#296=ORIENTED_EDGE('',*,*,#295,.T.);
#297=CARTESIAN_POINT('',(5.31852903241563,4.36067923529298,0.454999999999999));
#298=VERTEX_POINT('',#297);
#299=CARTESIAN_POINT('',(5.31852903241563,4.36067923529298,0.454999999999999));
#300=DIRECTION('',(0.00000000000000,1.00000000000000,0.00000000000000));
#301=VECTOR('',#300,1.00000000000000);
#302=LINE('',#299,#301);
#303=EDGE_CURVE('',#298,#290,#302,.T.);
#304=ORIENTED_EDGE('',*,*,#303,.F.);
#305=CARTESIAN_POINT('',(5.31852903241563,4.36067923529298,0.454999999999999));
#306=DIRECTION('',(0.00000000000000,0.00000000000000,-1.00000000000000));
#307=VECTOR('',#306,1.00000000000000);
#308=LINE('',#305,#307);
#309=EDGE_CURVE('',#298,#266,#308,.T.);
#310=ORIENTED_EDGE('',*,*,#309,.T.);
#311=ORIENTED_EDGE('',*,*,#271,.T.);
#312=EDGE_LOOP('',(#296,#304,#310,#311));
#313=FACE_OUTER_BOUND('',#312,.T.);
#314=CARTESIAN_POINT('',(5.31852903241563,4.36067923529298,-0.0250000000000008));
#315=DIRECTION('',(1.00000000000000,-0.00000000000000,0.00000000000000));
#316=DIRECTION('',(0.00000000000000,0.00000000000000,-1.00000000000000));
#317=AXIS2_PLACEMENT_3D('',#314,#315,#316);
#318=PLANE('',#317);
#319=ADVANCED_FACE('',(#313),#318,.T.);
#320=CARTESIAN_POINT('',(5.63352903241563,10.3606792352930,0.454999999999999));
#321=DIRECTION('',(1.00000000000000,0.00000000000000,0.00000000000000));
#322=VECTOR('',#321,1.00000000000000);
#323=LINE('',#320,#322);
#324=EDGE_CURVE('',#290,#25,#323,.T.);
#325=ORIENTED_EDGE('',*,*,#324,.T.);
#326=ORIENTED_EDGE('',*,*,#54,.F.);
#327=CARTESIAN_POINT('',(5.63352903241563,4.36067923529298,0.454999999999999));
#328=DIRECTION('',(-1.00000000000000,0.00000000000000,0.00000000000000));
#329=VECTOR('',#328,1.00000000000000);
#330=LINE('',#327,#329);
#331=EDGE_CURVE('',#43,#298,#330,.T.);
#332=ORIENTED_EDGE('',*,*,#331,.T.);
#333=ORIENTED_EDGE('',*,*,#303,.T.);
#334=EDGE_LOOP('',(#325,#326,#332,#333));
#335=FACE_OUTER_BOUND('',#334,.T.);
#336=CARTESIAN_POINT('',(5.47602903241563,4.36067923529298,0.454999999999999));
#337=DIRECTION('',(0.00000000000000,0.00000000000000,-1.00000000000000));
#338=DIRECTION('',(-1.00000000000000,0.00000000000000,0.00000000000000));
#339=AXIS2_PLACEMENT_3D('',#336,#337,#338);
#340=PLANE('',#339);
#341=ADVANCED_FACE('',(#335),#340,.T.);
#342=ORIENTED_EDGE('',*,*,#32,.F.);
#343=ORIENTED_EDGE('',*,*,#324,.F.);
#344=ORIENTED_EDGE('',*,*,#295,.F.);
#345=ORIENTED_EDGE('',*,*,#263,.F.);
#346=ORIENTED_EDGE('',*,*,#231,.F.);
#347=ORIENTED_EDGE('',*,*,#199,.F.);
#348=ORIENTED_EDGE('',*,*,#167,.F.);
#349=ORIENTED_EDGE('',*,*,#135,.F.);
#350=ORIENTED_EDGE('',*,*,#103,.F.);
#351=ORIENTED_EDGE('',*,*,#71,.F.);
#352=EDGE_LOOP('',(#342,#343,#344,#345,#346,#347,#348,#349,#350,#351));
#353=FACE_OUTER_BOUND('',#352,.T.);
#354=CARTESIAN_POINT('',(5.53514665741563,10.3606792352930,0.454999999999999));
#355=DIRECTION('',(0.00000000000000,1.00000000000000,0.00000000000000));
#356=DIRECTION('',(-1.00000000000000,0.00000000000000,0.00000000000000));
#357=AXIS2_PLACEMENT_3D('',#354,#355,#356);
#358=PLANE('',#357);
#359=ADVANCED_FACE('',(#353),#358,.T.);
#360=ORIENTED_EDGE('',*,*,#331,.F.);
#361=ORIENTED_EDGE('',*,*,#48,.F.);
#362=ORIENTED_EDGE('',*,*,#86,.T.);
#363=ORIENTED_EDGE('',*,*,#117,.T.);
#364=ORIENTED_EDGE('',*,*,#150,.T.);
#365=ORIENTED_EDGE('',*,*,#181,.T.);
#366=ORIENTED_EDGE('',*,*,#214,.T.);
#367=ORIENTED_EDGE('',*,*,#245,.T.);
#368=ORIENTED_EDGE('',*,*,#278,.T.);
#369=ORIENTED_EDGE('',*,*,#309,.F.);
#370=EDGE_LOOP('',(#360,#361,#362,#363,#364,#365,#366,#367,#368,#369));
#371=FACE_OUTER_BOUND('',#370,.T.);
#372=CARTESIAN_POINT('',(5.53514665741563,4.36067923529298,0.454999999999999));
#373=DIRECTION('',(0.00000000000000,1.00000000000000,-0.00000000000000));
#374=DIRECTION('',(-1.00000000000000,0.00000000000000,0.00000000000000));
#375=AXIS2_PLACEMENT_3D('',#372,#373,#374);
#376=PLANE('',#375);
#377=ADVANCED_FACE('',(#371),#376,.F.);
#378=CLOSED_SHELL('',(#63,#96,#127,#160,#191,#224,#255,#288,#319,#341,#359,#377));
#379=MANIFOLD_SOLID_BREP('',#378);
#380=COLOUR_RGB('',1.00000000000000,0.00000000000000,0.00000000000000);
#381=FILL_AREA_STYLE_COLOUR('',#380);
#382=FILL_AREA_STYLE('',(#381));
#383=SURFACE_STYLE_FILL_AREA(#382);
#384=SURFACE_SIDE_STYLE('',(#383));
#385=SURFACE_STYLE_USAGE(.BOTH.,#384);
#386=PRESENTATION_STYLE_ASSIGNMENT((#385));
#387=STYLED_ITEM('',(#386),#379);
#388=ADVANCED_BREP_SHAPE_REPRESENTATION('',(#379,#23),#18);
#389=PRODUCT('', '', ' ',(#2));
#390=PRODUCT_DEFINITION_FORMATION_WITH_SPECIFIED_SOURCE (' ', ' ', #389, .NOT_KNOWN.) ;
#391=PRODUCT_CATEGORY('part','') ;
#392=PRODUCT_RELATED_PRODUCT_CATEGORY('detail', ' ', (#389)) ;
#393=PRODUCT_CATEGORY_RELATIONSHIP(' ', ' ', #391, #392);
#394=PRODUCT_DEFINITION('', '', #390, #1);
#395=PRODUCT_DEFINITION_SHAPE('NONE', 'NONE', #394);
#396=SHAPE_DEFINITION_REPRESENTATION(#395, #388);
#397=PRESENTATION_LAYER_ASSIGNMENT('1','Unnamed [1]',(#379));
#398=MECHANICAL_DESIGN_GEOMETRIC_PRESENTATION_REPRESENTATION('',(#387), #18);
ENDSEC;
END-ISO-10303-21;
