ISO-10303-21;
HEADER;
FILE_DESCRIPTION((''),'2;1');
FILE_NAME('C:/Program Files/Kubotek/KeyCreatorPro.2021.SP0/STEP/SG1116.STP', '2021-02-24T20:59:48',(''), (''), 'KCM Version 2.0.6974.6974', 'KeyCreator Pro', '');
FILE_SCHEMA(('AUTOMOTIVE_DESIGN'));
ENDSEC;
DATA;
#1=PRODUCT_DEFINITION_CONTEXT('',#4,'design');
#2=PRODUCT_CONTEXT('',#4,'mechanical');
#3=APPLICATION_PROTOCOL_DEFINITION('International Standard','automotive_design',2001,#4);
#4=APPLICATION_CONTEXT('automotive design');
#10=DIMENSIONAL_EXPONENTS(1.0,0.0,0.0,0.0,0.0,0.0,0.0);
#11=DIMENSIONAL_EXPONENTS(0.0,0.0,0.0,0.0,0.0,0.0,0.0);
#12=(NAMED_UNIT(#10)LENGTH_UNIT()SI_UNIT(.MILLI.,.METRE.));
#13=(NAMED_UNIT(#11)PLANE_ANGLE_UNIT()SI_UNIT($,.RADIAN.));
#14=(NAMED_UNIT(#11)SOLID_ANGLE_UNIT()SI_UNIT($,.STERADIAN.));
#15=LENGTH_MEASURE_WITH_UNIT(LENGTH_MEASURE(25.4),#12);
#16= (CONVERSION_BASED_UNIT('INCH',#15)LENGTH_UNIT()NAMED_UNIT(#10));
#17=UNCERTAINTY_MEASURE_WITH_UNIT(LENGTH_MEASURE(1.0E-006),#16,'','');
#18=(GEOMETRIC_REPRESENTATION_CONTEXT(3)GLOBAL_UNCERTAINTY_ASSIGNED_CONTEXT((#17))GLOBAL_UNIT_ASSIGNED_CONTEXT((#16,#13,#14))REPRESENTATION_CONTEXT('NONE','WORKSPACE'));
#20=CARTESIAN_POINT('',(0.00000000000000,0.00000000000000,0.00000000000000));
#21=DIRECTION('',(0.00000000000000,0.00000000000000,1.00000000000000));
#22=DIRECTION('',(1.00000000000000,0.00000000000000,0.00000000000000));
#23=AXIS2_PLACEMENT_3D('',#20,#21,#22);
#24=CARTESIAN_POINT('',(0.750000000000000,6.19000000000000,0.190000000000000));
#25=VERTEX_POINT('',#24);
#26=CARTESIAN_POINT('',(0.750000000000000,6.19000000000000,0.125000000000000));
#27=VERTEX_POINT('',#26);
#28=CARTESIAN_POINT('',(0.750000000000000,6.19000000000000,0.157500000000001));
#29=DIRECTION('',(0.00000000000000,-1.00000000000000,6.12323399573677E-17));
#30=DIRECTION('',(1.00000000000000,0.00000000000000,0.00000000000000));
#31=AXIS2_PLACEMENT_3D('',#28,#29,#30);
#32=CIRCLE('',#31,0.0325000000000000);
#33=EDGE_CURVE('',#25,#27,#32,.T.);
#34=ORIENTED_EDGE('',*,*,#33,.T.);
#35=CARTESIAN_POINT('',(0.750000000000000,0.190000000000000,0.125000000000000));
#36=VERTEX_POINT('',#35);
#37=CARTESIAN_POINT('',(0.750000000000000,0.190000000000000,0.125000000000000));
#38=DIRECTION('',(0.00000000000000,1.00000000000000,0.00000000000000));
#39=VECTOR('',#38,1.00000000000000);
#40=LINE('',#37,#39);
#41=EDGE_CURVE('',#36,#27,#40,.T.);
#42=ORIENTED_EDGE('',*,*,#41,.F.);
#43=CARTESIAN_POINT('',(0.750000000000000,0.190000000000000,0.190000000000000));
#44=VERTEX_POINT('',#43);
#45=CARTESIAN_POINT('',(0.750000000000000,0.190000000000000,0.157500000000001));
#46=DIRECTION('',(0.00000000000000,-1.00000000000000,6.12323399573677E-17));
#47=DIRECTION('',(1.00000000000000,0.00000000000000,0.00000000000000));
#48=AXIS2_PLACEMENT_3D('',#45,#46,#47);
#49=CIRCLE('',#48,0.0325000000000000);
#50=EDGE_CURVE('',#44,#36,#49,.T.);
#51=ORIENTED_EDGE('',*,*,#50,.F.);
#52=CARTESIAN_POINT('',(0.750000000000000,0.190000000000000,0.190000000000000));
#53=DIRECTION('',(0.00000000000000,1.00000000000000,0.00000000000000));
#54=VECTOR('',#53,1.00000000000000);
#55=LINE('',#52,#54);
#56=EDGE_CURVE('',#44,#25,#55,.T.);
#57=ORIENTED_EDGE('',*,*,#56,.T.);
#58=EDGE_LOOP('',(#34,#42,#51,#57));
#59=FACE_OUTER_BOUND('',#58,.T.);
#60=CARTESIAN_POINT('',(0.750000000000000,0.190000000000000,0.157500000000001));
#61=DIRECTION('',(0.00000000000000,1.00000000000000,0.00000000000000));
#62=DIRECTION('',(1.00000000000000,-0.00000000000000,0.00000000000000));
#63=AXIS2_PLACEMENT_3D('',#60,#61,#62);
#64=CYLINDRICAL_SURFACE('',#63,0.0325000000000000);
#65=ADVANCED_FACE('',(#59),#64,.T.);
#66=CARTESIAN_POINT('',(1.50750000000000,6.19000000000000,0.125000000000000));
#67=VERTEX_POINT('',#66);
#68=CARTESIAN_POINT('',(1.50750000000000,6.19000000000000,0.125000000000000));
#69=DIRECTION('',(1.00000000000000,0.00000000000000,0.00000000000000));
#70=VECTOR('',#69,1.00000000000000);
#71=LINE('',#68,#70);
#72=EDGE_CURVE('',#27,#67,#71,.T.);
#73=ORIENTED_EDGE('',*,*,#72,.T.);
#74=CARTESIAN_POINT('',(1.50750000000000,0.190000000000000,0.125000000000000));
#75=VERTEX_POINT('',#74);
#76=CARTESIAN_POINT('',(1.50750000000000,0.190000000000000,0.125000000000000));
#77=DIRECTION('',(0.00000000000000,1.00000000000000,0.00000000000000));
#78=VECTOR('',#77,1.00000000000000);
#79=LINE('',#76,#78);
#80=EDGE_CURVE('',#75,#67,#79,.T.);
#81=ORIENTED_EDGE('',*,*,#80,.F.);
#82=CARTESIAN_POINT('',(1.50750000000000,0.190000000000000,0.125000000000000));
#83=DIRECTION('',(-1.00000000000000,0.00000000000000,0.00000000000000));
#84=VECTOR('',#83,1.00000000000000);
#85=LINE('',#82,#84);
#86=EDGE_CURVE('',#75,#36,#85,.T.);
#87=ORIENTED_EDGE('',*,*,#86,.T.);
#88=ORIENTED_EDGE('',*,*,#41,.T.);
#89=EDGE_LOOP('',(#73,#81,#87,#88));
#90=FACE_OUTER_BOUND('',#89,.T.);
#91=CARTESIAN_POINT('',(1.12875000000000,0.190000000000000,0.125000000000000));
#92=DIRECTION('',(0.00000000000000,0.00000000000000,-1.00000000000000));
#93=DIRECTION('',(-1.00000000000000,0.00000000000000,0.00000000000000));
#94=AXIS2_PLACEMENT_3D('',#91,#92,#93);
#95=PLANE('',#94);
#96=ADVANCED_FACE('',(#90),#95,.T.);
#97=CARTESIAN_POINT('',(1.50750000000000,6.19000000000000,-0.124999999999999));
#98=VERTEX_POINT('',#97);
#99=CARTESIAN_POINT('',(1.50750000000000,6.19000000000000,0.125000000000000));
#100=DIRECTION('',(0.00000000000000,-1.11022302462516E-16,-1.00000000000000));
#101=VECTOR('',#100,1.00000000000000);
#102=LINE('',#99,#101);
#103=EDGE_CURVE('',#67,#98,#102,.T.);
#104=ORIENTED_EDGE('',*,*,#103,.T.);
#105=CARTESIAN_POINT('',(1.50750000000000,0.190000000000000,-0.124999999999999));
#106=VERTEX_POINT('',#105);
#107=CARTESIAN_POINT('',(1.50750000000000,0.190000000000000,-0.124999999999999));
#108=DIRECTION('',(0.00000000000000,1.00000000000000,0.00000000000000));
#109=VECTOR('',#108,1.00000000000000);
#110=LINE('',#107,#109);
#111=EDGE_CURVE('',#106,#98,#110,.T.);
#112=ORIENTED_EDGE('',*,*,#111,.F.);
#113=CARTESIAN_POINT('',(1.50750000000000,0.190000000000000,0.125000000000000));
#114=DIRECTION('',(0.00000000000000,-1.11022302462516E-16,-1.00000000000000));
#115=VECTOR('',#114,1.00000000000000);
#116=LINE('',#113,#115);
#117=EDGE_CURVE('',#75,#106,#116,.T.);
#118=ORIENTED_EDGE('',*,*,#117,.F.);
#119=ORIENTED_EDGE('',*,*,#80,.T.);
#120=EDGE_LOOP('',(#104,#112,#118,#119));
#121=FACE_OUTER_BOUND('',#120,.T.);
#122=CARTESIAN_POINT('',(1.50750000000000,0.190000000000000,4.44089209850063E-16));
#123=DIRECTION('',(-1.00000000000000,0.00000000000000,-0.00000000000000));
#124=DIRECTION('',(-0.00000000000000,1.11022302462516E-16,1.00000000000000));
#125=AXIS2_PLACEMENT_3D('',#122,#123,#124);
#126=PLANE('',#125);
#127=ADVANCED_FACE('',(#121),#126,.T.);
#128=CARTESIAN_POINT('',(0.00000000000000,6.19000000000000,-0.124999999999999));
#129=VERTEX_POINT('',#128);
#130=CARTESIAN_POINT('',(0.00000000000000,6.19000000000000,-0.124999999999999));
#131=DIRECTION('',(-1.00000000000000,-0.00000000000000,-0.00000000000000));
#132=VECTOR('',#131,1.00000000000000);
#133=LINE('',#130,#132);
#134=EDGE_CURVE('',#98,#129,#133,.T.);
#135=ORIENTED_EDGE('',*,*,#134,.T.);
#136=CARTESIAN_POINT('',(0.00000000000000,0.190000000000000,-0.124999999999999));
#137=VERTEX_POINT('',#136);
#138=CARTESIAN_POINT('',(0.00000000000000,0.190000000000000,-0.124999999999999));
#139=DIRECTION('',(0.00000000000000,1.00000000000000,0.00000000000000));
#140=VECTOR('',#139,1.00000000000000);
#141=LINE('',#138,#140);
#142=EDGE_CURVE('',#137,#129,#141,.T.);
#143=ORIENTED_EDGE('',*,*,#142,.F.);
#144=CARTESIAN_POINT('',(0.00000000000000,0.190000000000000,-0.124999999999999));
#145=DIRECTION('',(1.00000000000000,0.00000000000000,0.00000000000000));
#146=VECTOR('',#145,1.00000000000000);
#147=LINE('',#144,#146);
#148=EDGE_CURVE('',#137,#106,#147,.T.);
#149=ORIENTED_EDGE('',*,*,#148,.T.);
#150=ORIENTED_EDGE('',*,*,#111,.T.);
#151=EDGE_LOOP('',(#135,#143,#149,#150));
#152=FACE_OUTER_BOUND('',#151,.T.);
#153=CARTESIAN_POINT('',(0.753750000000000,0.190000000000000,-0.124999999999999));
#154=DIRECTION('',(0.00000000000000,0.00000000000000,1.00000000000000));
#155=DIRECTION('',(1.00000000000000,0.00000000000000,0.00000000000000));
#156=AXIS2_PLACEMENT_3D('',#153,#154,#155);
#157=PLANE('',#156);
#158=ADVANCED_FACE('',(#152),#157,.T.);
#159=CARTESIAN_POINT('',(-5.97015314584335E-18,6.19000000000000,-0.189999999999999));
#160=VERTEX_POINT('',#159);
#161=CARTESIAN_POINT('',(0.00000000000000,6.19000000000000,-0.157499999999999));
#162=DIRECTION('',(0.00000000000000,-1.00000000000000,6.12323399573677E-17));
#163=DIRECTION('',(1.00000000000000,0.00000000000000,0.00000000000000));
#164=AXIS2_PLACEMENT_3D('',#161,#162,#163);
#165=CIRCLE('',#164,0.0325000000000000);
#166=EDGE_CURVE('',#129,#160,#165,.T.);
#167=ORIENTED_EDGE('',*,*,#166,.T.);
#168=CARTESIAN_POINT('',(-5.97015314584335E-18,0.190000000000000,-0.189999999999999));
#169=VERTEX_POINT('',#168);
#170=CARTESIAN_POINT('',(-5.97015314584335E-18,0.190000000000000,-0.189999999999999));
#171=DIRECTION('',(0.00000000000000,1.00000000000000,0.00000000000000));
#172=VECTOR('',#171,1.00000000000000);
#173=LINE('',#170,#172);
#174=EDGE_CURVE('',#169,#160,#173,.T.);
#175=ORIENTED_EDGE('',*,*,#174,.F.);
#176=CARTESIAN_POINT('',(0.00000000000000,0.190000000000000,-0.157499999999999));
#177=DIRECTION('',(0.00000000000000,-1.00000000000000,6.12323399573677E-17));
#178=DIRECTION('',(1.00000000000000,0.00000000000000,0.00000000000000));
#179=AXIS2_PLACEMENT_3D('',#176,#177,#178);
#180=CIRCLE('',#179,0.0325000000000000);
#181=EDGE_CURVE('',#137,#169,#180,.T.);
#182=ORIENTED_EDGE('',*,*,#181,.F.);
#183=ORIENTED_EDGE('',*,*,#142,.T.);
#184=EDGE_LOOP('',(#167,#175,#182,#183));
#185=FACE_OUTER_BOUND('',#184,.T.);
#186=CARTESIAN_POINT('',(0.00000000000000,0.190000000000000,-0.157499999999999));
#187=DIRECTION('',(0.00000000000000,1.00000000000000,0.00000000000000));
#188=DIRECTION('',(1.00000000000000,-0.00000000000000,0.00000000000000));
#189=AXIS2_PLACEMENT_3D('',#186,#187,#188);
#190=CYLINDRICAL_SURFACE('',#189,0.0325000000000000);
#191=ADVANCED_FACE('',(#185),#190,.T.);
#192=CARTESIAN_POINT('',(2.43500000000000,6.19000000000000,-0.190000000000000));
#193=VERTEX_POINT('',#192);
#194=CARTESIAN_POINT('',(0.00000000000000,6.19000000000000,-0.190000000000000));
#195=DIRECTION('',(1.00000000000000,0.00000000000000,0.00000000000000));
#196=VECTOR('',#195,1.00000000000000);
#197=LINE('',#194,#196);
#198=EDGE_CURVE('',#160,#193,#197,.T.);
#199=ORIENTED_EDGE('',*,*,#198,.T.);
#200=CARTESIAN_POINT('',(2.43500000000000,0.190000000000000,-0.190000000000000));
#201=VERTEX_POINT('',#200);
#202=CARTESIAN_POINT('',(2.43500000000000,0.190000000000000,-0.190000000000000));
#203=DIRECTION('',(0.00000000000000,1.00000000000000,0.00000000000000));
#204=VECTOR('',#203,1.00000000000000);
#205=LINE('',#202,#204);
#206=EDGE_CURVE('',#201,#193,#205,.T.);
#207=ORIENTED_EDGE('',*,*,#206,.F.);
#208=CARTESIAN_POINT('',(0.00000000000000,0.190000000000000,-0.190000000000000));
#209=DIRECTION('',(1.00000000000000,0.00000000000000,0.00000000000000));
#210=VECTOR('',#209,1.00000000000000);
#211=LINE('',#208,#210);
#212=EDGE_CURVE('',#169,#201,#211,.T.);
#213=ORIENTED_EDGE('',*,*,#212,.F.);
#214=ORIENTED_EDGE('',*,*,#174,.T.);
#215=EDGE_LOOP('',(#199,#207,#213,#214));
#216=FACE_OUTER_BOUND('',#215,.T.);
#217=CARTESIAN_POINT('',(1.21750000000000,0.190000000000000,-0.190000000000000));
#218=DIRECTION('',(0.00000000000000,0.00000000000000,-1.00000000000000));
#219=DIRECTION('',(-1.00000000000000,-0.00000000000000,-0.00000000000000));
#220=AXIS2_PLACEMENT_3D('',#217,#218,#219);
#221=PLANE('',#220);
#222=ADVANCED_FACE('',(#216),#221,.T.);
#223=CARTESIAN_POINT('',(2.43500000000000,6.19000000000000,-0.124999999999999));
#224=VERTEX_POINT('',#223);
#225=CARTESIAN_POINT('',(2.43500000000000,6.19000000000000,-0.157499999999999));
#226=DIRECTION('',(0.00000000000000,-1.00000000000000,6.12323399573677E-17));
#227=DIRECTION('',(1.00000000000000,0.00000000000000,0.00000000000000));
#228=AXIS2_PLACEMENT_3D('',#225,#226,#227);
#229=CIRCLE('',#228,0.0325000000000000);
#230=EDGE_CURVE('',#193,#224,#229,.T.);
#231=ORIENTED_EDGE('',*,*,#230,.T.);
#232=CARTESIAN_POINT('',(2.43500000000000,0.190000000000000,-0.124999999999999));
#233=VERTEX_POINT('',#232);
#234=CARTESIAN_POINT('',(2.43500000000000,0.190000000000000,-0.124999999999999));
#235=DIRECTION('',(0.00000000000000,1.00000000000000,0.00000000000000));
#236=VECTOR('',#235,1.00000000000000);
#237=LINE('',#234,#236);
#238=EDGE_CURVE('',#233,#224,#237,.T.);
#239=ORIENTED_EDGE('',*,*,#238,.F.);
#240=CARTESIAN_POINT('',(2.43500000000000,0.190000000000000,-0.157499999999999));
#241=DIRECTION('',(0.00000000000000,-1.00000000000000,6.12323399573677E-17));
#242=DIRECTION('',(1.00000000000000,0.00000000000000,0.00000000000000));
#243=AXIS2_PLACEMENT_3D('',#240,#241,#242);
#244=CIRCLE('',#243,0.0325000000000000);
#245=EDGE_CURVE('',#201,#233,#244,.T.);
#246=ORIENTED_EDGE('',*,*,#245,.F.);
#247=ORIENTED_EDGE('',*,*,#206,.T.);
#248=EDGE_LOOP('',(#231,#239,#246,#247));
#249=FACE_OUTER_BOUND('',#248,.T.);
#250=CARTESIAN_POINT('',(2.43500000000000,0.190000000000000,-0.157499999999999));
#251=DIRECTION('',(0.00000000000000,1.00000000000000,0.00000000000000));
#252=DIRECTION('',(-1.00000000000000,0.00000000000000,0.00000000000000));
#253=AXIS2_PLACEMENT_3D('',#250,#251,#252);
#254=CYLINDRICAL_SURFACE('',#253,0.0325000000000000);
#255=ADVANCED_FACE('',(#249),#254,.T.);
#256=CARTESIAN_POINT('',(1.57250000000000,6.19000000000000,-0.124999999999999));
#257=VERTEX_POINT('',#256);
#258=CARTESIAN_POINT('',(1.57250000000000,6.19000000000000,-0.124999999999999));
#259=DIRECTION('',(-1.00000000000000,-0.00000000000000,-0.00000000000000));
#260=VECTOR('',#259,1.00000000000000);
#261=LINE('',#258,#260);
#262=EDGE_CURVE('',#224,#257,#261,.T.);
#263=ORIENTED_EDGE('',*,*,#262,.T.);
#264=CARTESIAN_POINT('',(1.57250000000000,0.190000000000000,-0.124999999999999));
#265=VERTEX_POINT('',#264);
#266=CARTESIAN_POINT('',(1.57250000000000,0.190000000000000,-0.124999999999999));
#267=DIRECTION('',(0.00000000000000,1.00000000000000,0.00000000000000));
#268=VECTOR('',#267,1.00000000000000);
#269=LINE('',#266,#268);
#270=EDGE_CURVE('',#265,#257,#269,.T.);
#271=ORIENTED_EDGE('',*,*,#270,.F.);
#272=CARTESIAN_POINT('',(1.57250000000000,0.190000000000000,-0.124999999999999));
#273=DIRECTION('',(1.00000000000000,0.00000000000000,0.00000000000000));
#274=VECTOR('',#273,1.00000000000000);
#275=LINE('',#272,#274);
#276=EDGE_CURVE('',#265,#233,#275,.T.);
#277=ORIENTED_EDGE('',*,*,#276,.T.);
#278=ORIENTED_EDGE('',*,*,#238,.T.);
#279=EDGE_LOOP('',(#263,#271,#277,#278));
#280=FACE_OUTER_BOUND('',#279,.T.);
#281=CARTESIAN_POINT('',(2.00375000000000,0.190000000000000,-0.124999999999999));
#282=DIRECTION('',(0.00000000000000,0.00000000000000,1.00000000000000));
#283=DIRECTION('',(1.00000000000000,0.00000000000000,0.00000000000000));
#284=AXIS2_PLACEMENT_3D('',#281,#282,#283);
#285=PLANE('',#284);
#286=ADVANCED_FACE('',(#280),#285,.T.);
#287=CARTESIAN_POINT('',(1.57250000000000,6.19000000000000,0.125000000000000));
#288=VERTEX_POINT('',#287);
#289=CARTESIAN_POINT('',(1.57250000000000,6.19000000000000,0.125000000000000));
#290=DIRECTION('',(0.00000000000000,1.11022302462516E-16,1.00000000000000));
#291=VECTOR('',#290,1.00000000000000);
#292=LINE('',#289,#291);
#293=EDGE_CURVE('',#257,#288,#292,.T.);
#294=ORIENTED_EDGE('',*,*,#293,.T.);
#295=CARTESIAN_POINT('',(1.57250000000000,0.190000000000000,0.125000000000000));
#296=VERTEX_POINT('',#295);
#297=CARTESIAN_POINT('',(1.57250000000000,0.190000000000000,0.125000000000000));
#298=DIRECTION('',(0.00000000000000,1.00000000000000,0.00000000000000));
#299=VECTOR('',#298,1.00000000000000);
#300=LINE('',#297,#299);
#301=EDGE_CURVE('',#296,#288,#300,.T.);
#302=ORIENTED_EDGE('',*,*,#301,.F.);
#303=CARTESIAN_POINT('',(1.57250000000000,0.190000000000000,0.125000000000000));
#304=DIRECTION('',(0.00000000000000,-1.11022302462516E-16,-1.00000000000000));
#305=VECTOR('',#304,1.00000000000000);
#306=LINE('',#303,#305);
#307=EDGE_CURVE('',#296,#265,#306,.T.);
#308=ORIENTED_EDGE('',*,*,#307,.T.);
#309=ORIENTED_EDGE('',*,*,#270,.T.);
#310=EDGE_LOOP('',(#294,#302,#308,#309));
#311=FACE_OUTER_BOUND('',#310,.T.);
#312=CARTESIAN_POINT('',(1.57250000000000,0.190000000000000,4.44089209850063E-16));
#313=DIRECTION('',(1.00000000000000,-0.00000000000000,0.00000000000000));
#314=DIRECTION('',(0.00000000000000,-1.11022302462516E-16,-1.00000000000000));
#315=AXIS2_PLACEMENT_3D('',#312,#313,#314);
#316=PLANE('',#315);
#317=ADVANCED_FACE('',(#311),#316,.T.);
#318=CARTESIAN_POINT('',(2.43500000000000,6.19000000000000,0.125000000000000));
#319=VERTEX_POINT('',#318);
#320=CARTESIAN_POINT('',(2.43500000000000,6.19000000000000,0.125000000000000));
#321=DIRECTION('',(1.00000000000000,0.00000000000000,0.00000000000000));
#322=VECTOR('',#321,1.00000000000000);
#323=LINE('',#320,#322);
#324=EDGE_CURVE('',#288,#319,#323,.T.);
#325=ORIENTED_EDGE('',*,*,#324,.T.);
#326=CARTESIAN_POINT('',(2.43500000000000,0.190000000000000,0.125000000000000));
#327=VERTEX_POINT('',#326);
#328=CARTESIAN_POINT('',(2.43500000000000,0.190000000000000,0.125000000000000));
#329=DIRECTION('',(0.00000000000000,1.00000000000000,0.00000000000000));
#330=VECTOR('',#329,1.00000000000000);
#331=LINE('',#328,#330);
#332=EDGE_CURVE('',#327,#319,#331,.T.);
#333=ORIENTED_EDGE('',*,*,#332,.F.);
#334=CARTESIAN_POINT('',(2.43500000000000,0.190000000000000,0.125000000000000));
#335=DIRECTION('',(-1.00000000000000,0.00000000000000,0.00000000000000));
#336=VECTOR('',#335,1.00000000000000);
#337=LINE('',#334,#336);
#338=EDGE_CURVE('',#327,#296,#337,.T.);
#339=ORIENTED_EDGE('',*,*,#338,.T.);
#340=ORIENTED_EDGE('',*,*,#301,.T.);
#341=EDGE_LOOP('',(#325,#333,#339,#340));
#342=FACE_OUTER_BOUND('',#341,.T.);
#343=CARTESIAN_POINT('',(2.00375000000000,0.190000000000000,0.125000000000000));
#344=DIRECTION('',(0.00000000000000,0.00000000000000,-1.00000000000000));
#345=DIRECTION('',(-1.00000000000000,0.00000000000000,0.00000000000000));
#346=AXIS2_PLACEMENT_3D('',#343,#344,#345);
#347=PLANE('',#346);
#348=ADVANCED_FACE('',(#342),#347,.T.);
#349=CARTESIAN_POINT('',(2.43500000000000,6.19000000000000,0.190000000000000));
#350=VERTEX_POINT('',#349);
#351=CARTESIAN_POINT('',(2.43500000000000,6.19000000000000,0.157500000000001));
#352=DIRECTION('',(0.00000000000000,-1.00000000000000,6.12323399573677E-17));
#353=DIRECTION('',(1.00000000000000,0.00000000000000,0.00000000000000));
#354=AXIS2_PLACEMENT_3D('',#351,#352,#353);
#355=CIRCLE('',#354,0.0325000000000000);
#356=EDGE_CURVE('',#319,#350,#355,.T.);
#357=ORIENTED_EDGE('',*,*,#356,.T.);
#358=CARTESIAN_POINT('',(2.43500000000000,0.190000000000000,0.190000000000000));
#359=VERTEX_POINT('',#358);
#360=CARTESIAN_POINT('',(2.43500000000000,0.190000000000000,0.190000000000000));
#361=DIRECTION('',(0.00000000000000,1.00000000000000,0.00000000000000));
#362=VECTOR('',#361,1.00000000000000);
#363=LINE('',#360,#362);
#364=EDGE_CURVE('',#359,#350,#363,.T.);
#365=ORIENTED_EDGE('',*,*,#364,.F.);
#366=CARTESIAN_POINT('',(2.43500000000000,0.190000000000000,0.157500000000001));
#367=DIRECTION('',(0.00000000000000,-1.00000000000000,6.12323399573677E-17));
#368=DIRECTION('',(1.00000000000000,0.00000000000000,0.00000000000000));
#369=AXIS2_PLACEMENT_3D('',#366,#367,#368);
#370=CIRCLE('',#369,0.0325000000000000);
#371=EDGE_CURVE('',#327,#359,#370,.T.);
#372=ORIENTED_EDGE('',*,*,#371,.F.);
#373=ORIENTED_EDGE('',*,*,#332,.T.);
#374=EDGE_LOOP('',(#357,#365,#372,#373));
#375=FACE_OUTER_BOUND('',#374,.T.);
#376=CARTESIAN_POINT('',(2.43500000000000,0.190000000000000,0.157500000000001));
#377=DIRECTION('',(0.00000000000000,1.00000000000000,0.00000000000000));
#378=DIRECTION('',(-1.00000000000000,0.00000000000000,0.00000000000000));
#379=AXIS2_PLACEMENT_3D('',#376,#377,#378);
#380=CYLINDRICAL_SURFACE('',#379,0.0325000000000000);
#381=ADVANCED_FACE('',(#375),#380,.T.);
#382=CARTESIAN_POINT('',(2.43500000000000,6.19000000000000,0.190000000000000));
#383=DIRECTION('',(-1.00000000000000,0.00000000000000,0.00000000000000));
#384=VECTOR('',#383,1.00000000000000);
#385=LINE('',#382,#384);
#386=EDGE_CURVE('',#350,#25,#385,.T.);
#387=ORIENTED_EDGE('',*,*,#386,.T.);
#388=ORIENTED_EDGE('',*,*,#56,.F.);
#389=CARTESIAN_POINT('',(2.43500000000000,0.190000000000000,0.190000000000000));
#390=DIRECTION('',(-1.00000000000000,0.00000000000000,0.00000000000000));
#391=VECTOR('',#390,1.00000000000000);
#392=LINE('',#389,#391);
#393=EDGE_CURVE('',#359,#44,#392,.T.);
#394=ORIENTED_EDGE('',*,*,#393,.F.);
#395=ORIENTED_EDGE('',*,*,#364,.T.);
#396=EDGE_LOOP('',(#387,#388,#394,#395));
#397=FACE_OUTER_BOUND('',#396,.T.);
#398=CARTESIAN_POINT('',(1.59250000000000,0.190000000000000,0.190000000000000));
#399=DIRECTION('',(0.00000000000000,-0.00000000000000,1.00000000000000));
#400=DIRECTION('',(1.00000000000000,-0.00000000000000,-0.00000000000000));
#401=AXIS2_PLACEMENT_3D('',#398,#399,#400);
#402=PLANE('',#401);
#403=ADVANCED_FACE('',(#397),#402,.T.);
#404=ORIENTED_EDGE('',*,*,#33,.F.);
#405=ORIENTED_EDGE('',*,*,#386,.F.);
#406=ORIENTED_EDGE('',*,*,#356,.F.);
#407=ORIENTED_EDGE('',*,*,#324,.F.);
#408=ORIENTED_EDGE('',*,*,#293,.F.);
#409=ORIENTED_EDGE('',*,*,#262,.F.);
#410=ORIENTED_EDGE('',*,*,#230,.F.);
#411=ORIENTED_EDGE('',*,*,#198,.F.);
#412=ORIENTED_EDGE('',*,*,#166,.F.);
#413=ORIENTED_EDGE('',*,*,#134,.F.);
#414=ORIENTED_EDGE('',*,*,#103,.F.);
#415=ORIENTED_EDGE('',*,*,#72,.F.);
#416=EDGE_LOOP('',(#404,#405,#406,#407,#408,#409,#410,#411,#412,#413,#414,#415));
#417=FACE_OUTER_BOUND('',#416,.T.);
#418=CARTESIAN_POINT('',(1.90873237500000,6.19000000000000,0.190000000000000));
#419=DIRECTION('',(0.00000000000000,1.00000000000000,0.00000000000000));
#420=DIRECTION('',(-1.00000000000000,0.00000000000000,0.00000000000000));
#421=AXIS2_PLACEMENT_3D('',#418,#419,#420);
#422=PLANE('',#421);
#423=ADVANCED_FACE('',(#417),#422,.T.);
#424=ORIENTED_EDGE('',*,*,#393,.T.);
#425=ORIENTED_EDGE('',*,*,#50,.T.);
#426=ORIENTED_EDGE('',*,*,#86,.F.);
#427=ORIENTED_EDGE('',*,*,#117,.T.);
#428=ORIENTED_EDGE('',*,*,#148,.F.);
#429=ORIENTED_EDGE('',*,*,#181,.T.);
#430=ORIENTED_EDGE('',*,*,#212,.T.);
#431=ORIENTED_EDGE('',*,*,#245,.T.);
#432=ORIENTED_EDGE('',*,*,#276,.F.);
#433=ORIENTED_EDGE('',*,*,#307,.F.);
#434=ORIENTED_EDGE('',*,*,#338,.F.);
#435=ORIENTED_EDGE('',*,*,#371,.T.);
#436=EDGE_LOOP('',(#424,#425,#426,#427,#428,#429,#430,#431,#432,#433,#434,#435));
#437=FACE_OUTER_BOUND('',#436,.T.);
#438=CARTESIAN_POINT('',(1.90873237500000,0.190000000000000,0.190000000000000));
#439=DIRECTION('',(0.00000000000000,1.00000000000000,-0.00000000000000));
#440=DIRECTION('',(-1.00000000000000,0.00000000000000,0.00000000000000));
#441=AXIS2_PLACEMENT_3D('',#438,#439,#440);
#442=PLANE('',#441);
#443=ADVANCED_FACE('',(#437),#442,.F.);
#444=CLOSED_SHELL('',(#65,#96,#127,#158,#191,#222,#255,#286,#317,#348,#381,#403,#423,#443));
#445=MANIFOLD_SOLID_BREP('',#444);
#446=COLOUR_RGB('',1.00000000000000,0.00000000000000,0.00000000000000);
#447=FILL_AREA_STYLE_COLOUR('',#446);
#448=FILL_AREA_STYLE('',(#447));
#449=SURFACE_STYLE_FILL_AREA(#448);
#450=SURFACE_SIDE_STYLE('',(#449));
#451=SURFACE_STYLE_USAGE(.BOTH.,#450);
#452=PRESENTATION_STYLE_ASSIGNMENT((#451));
#453=STYLED_ITEM('',(#452),#445);
#454=ADVANCED_BREP_SHAPE_REPRESENTATION('',(#445,#23),#18);
#455=PRODUCT('', '', ' ',(#2));
#456=PRODUCT_DEFINITION_FORMATION_WITH_SPECIFIED_SOURCE (' ', ' ', #455, .NOT_KNOWN.) ;
#457=PRODUCT_CATEGORY('part','') ;
#458=PRODUCT_RELATED_PRODUCT_CATEGORY('detail', ' ', (#455)) ;
#459=PRODUCT_CATEGORY_RELATIONSHIP(' ', ' ', #457, #458);
#460=PRODUCT_DEFINITION('', '', #456, #1);
#461=PRODUCT_DEFINITION_SHAPE('NONE', 'NONE', #460);
#462=SHAPE_DEFINITION_REPRESENTATION(#461, #454);
#463=PRESENTATION_LAYER_ASSIGNMENT('1','Unnamed [1]',(#445));
#464=MECHANICAL_DESIGN_GEOMETRIC_PRESENTATION_REPRESENTATION('',(#453), #18);
ENDSEC;
END-ISO-10303-21;
