ISO-10303-21;
HEADER;
FILE_DESCRIPTION((''),'2;1');
FILE_NAME('C:/Program Files/Kubotek/KeyCreatorPro.2021.SP0/STEP/SG1090.STP', '2021-02-02T21:28:12',(''), (''), 'KCM Version 2.0.6974.6974', 'KeyCreator Pro', '');
FILE_SCHEMA(('AUTOMOTIVE_DESIGN'));
ENDSEC;
DATA;
#1=PRODUCT_DEFINITION_CONTEXT('',#4,'design');
#2=PRODUCT_CONTEXT('',#4,'mechanical');
#3=APPLICATION_PROTOCOL_DEFINITION('International Standard','automotive_design',2001,#4);
#4=APPLICATION_CONTEXT('automotive design');
#10=DIMENSIONAL_EXPONENTS(1.0,0.0,0.0,0.0,0.0,0.0,0.0);
#11=DIMENSIONAL_EXPONENTS(0.0,0.0,0.0,0.0,0.0,0.0,0.0);
#12=(NAMED_UNIT(#10)LENGTH_UNIT()SI_UNIT(.MILLI.,.METRE.));
#13=(NAMED_UNIT(#11)PLANE_ANGLE_UNIT()SI_UNIT($,.RADIAN.));
#14=(NAMED_UNIT(#11)SOLID_ANGLE_UNIT()SI_UNIT($,.STERADIAN.));
#15=LENGTH_MEASURE_WITH_UNIT(LENGTH_MEASURE(25.4),#12);
#16= (CONVERSION_BASED_UNIT('INCH',#15)LENGTH_UNIT()NAMED_UNIT(#10));
#17=UNCERTAINTY_MEASURE_WITH_UNIT(LENGTH_MEASURE(1.0E-006),#16,'','');
#18=(GEOMETRIC_REPRESENTATION_CONTEXT(3)GLOBAL_UNCERTAINTY_ASSIGNED_CONTEXT((#17))GLOBAL_UNIT_ASSIGNED_CONTEXT((#16,#13,#14))REPRESENTATION_CONTEXT('NONE','WORKSPACE'));
#20=CARTESIAN_POINT('',(0.00000000000000,0.00000000000000,0.00000000000000));
#21=DIRECTION('',(0.00000000000000,0.00000000000000,1.00000000000000));
#22=DIRECTION('',(1.00000000000000,0.00000000000000,0.00000000000000));
#23=AXIS2_PLACEMENT_3D('',#20,#21,#22);
#24=CARTESIAN_POINT('',(6.13504817981134,10.2038566159577,-0.505000000000000));
#25=VERTEX_POINT('',#24);
#26=CARTESIAN_POINT('',(6.21504817981134,10.2038566159577,-0.505000000000000));
#27=VERTEX_POINT('',#26);
#28=CARTESIAN_POINT('',(6.17504817981134,10.2038566159577,-0.505000000000000));
#29=DIRECTION('',(0.00000000000000,-1.00000000000000,6.12323399573677E-17));
#30=DIRECTION('',(1.00000000000000,0.00000000000000,0.00000000000000));
#31=AXIS2_PLACEMENT_3D('',#28,#29,#30);
#32=CIRCLE('',#31,0.0400000000000000);
#33=EDGE_CURVE('',#25,#27,#32,.T.);
#34=ORIENTED_EDGE('',*,*,#33,.T.);
#35=CARTESIAN_POINT('',(6.21504817981134,4.20385661595769,-0.505000000000000));
#36=VERTEX_POINT('',#35);
#37=CARTESIAN_POINT('',(6.21504817981134,4.20385661595769,-0.505000000000000));
#38=DIRECTION('',(0.00000000000000,1.00000000000000,0.00000000000000));
#39=VECTOR('',#38,1.00000000000000);
#40=LINE('',#37,#39);
#41=EDGE_CURVE('',#36,#27,#40,.T.);
#42=ORIENTED_EDGE('',*,*,#41,.F.);
#43=CARTESIAN_POINT('',(6.13504817981134,4.20385661595769,-0.505000000000000));
#44=VERTEX_POINT('',#43);
#45=CARTESIAN_POINT('',(6.17504817981134,4.20385661595769,-0.505000000000000));
#46=DIRECTION('',(0.00000000000000,-1.00000000000000,6.12323399573677E-17));
#47=DIRECTION('',(1.00000000000000,0.00000000000000,0.00000000000000));
#48=AXIS2_PLACEMENT_3D('',#45,#46,#47);
#49=CIRCLE('',#48,0.0400000000000000);
#50=EDGE_CURVE('',#44,#36,#49,.T.);
#51=ORIENTED_EDGE('',*,*,#50,.F.);
#52=CARTESIAN_POINT('',(6.13504817981134,4.20385661595769,-0.505000000000000));
#53=DIRECTION('',(0.00000000000000,1.00000000000000,0.00000000000000));
#54=VECTOR('',#53,1.00000000000000);
#55=LINE('',#52,#54);
#56=EDGE_CURVE('',#44,#25,#55,.T.);
#57=ORIENTED_EDGE('',*,*,#56,.T.);
#58=EDGE_LOOP('',(#34,#42,#51,#57));
#59=FACE_OUTER_BOUND('',#58,.T.);
#60=CARTESIAN_POINT('',(6.17504817981134,4.20385661595769,-0.505000000000000));
#61=DIRECTION('',(0.00000000000000,1.00000000000000,0.00000000000000));
#62=DIRECTION('',(0.00000000000000,0.00000000000000,1.00000000000000));
#63=AXIS2_PLACEMENT_3D('',#60,#61,#62);
#64=CYLINDRICAL_SURFACE('',#63,0.0400000000000000);
#65=ADVANCED_FACE('',(#59),#64,.T.);
#66=CARTESIAN_POINT('',(6.21504817981134,10.2038566159577,0.455000000000000));
#67=VERTEX_POINT('',#66);
#68=CARTESIAN_POINT('',(6.21504817981134,10.2038566159577,0.455000000000000));
#69=DIRECTION('',(0.00000000000000,0.00000000000000,1.00000000000000));
#70=VECTOR('',#69,1.00000000000000);
#71=LINE('',#68,#70);
#72=EDGE_CURVE('',#27,#67,#71,.T.);
#73=ORIENTED_EDGE('',*,*,#72,.T.);
#74=CARTESIAN_POINT('',(6.21504817981134,4.20385661595769,0.455000000000000));
#75=VERTEX_POINT('',#74);
#76=CARTESIAN_POINT('',(6.21504817981134,4.20385661595769,0.455000000000000));
#77=DIRECTION('',(0.00000000000000,1.00000000000000,0.00000000000000));
#78=VECTOR('',#77,1.00000000000000);
#79=LINE('',#76,#78);
#80=EDGE_CURVE('',#75,#67,#79,.T.);
#81=ORIENTED_EDGE('',*,*,#80,.F.);
#82=CARTESIAN_POINT('',(6.21504817981134,4.20385661595769,0.455000000000000));
#83=DIRECTION('',(0.00000000000000,0.00000000000000,-1.00000000000000));
#84=VECTOR('',#83,1.00000000000000);
#85=LINE('',#82,#84);
#86=EDGE_CURVE('',#75,#36,#85,.T.);
#87=ORIENTED_EDGE('',*,*,#86,.T.);
#88=ORIENTED_EDGE('',*,*,#41,.T.);
#89=EDGE_LOOP('',(#73,#81,#87,#88));
#90=FACE_OUTER_BOUND('',#89,.T.);
#91=CARTESIAN_POINT('',(6.21504817981134,4.20385661595769,-0.0249999999999999));
#92=DIRECTION('',(1.00000000000000,-0.00000000000000,0.00000000000000));
#93=DIRECTION('',(0.00000000000000,0.00000000000000,-1.00000000000000));
#94=AXIS2_PLACEMENT_3D('',#91,#92,#93);
#95=PLANE('',#94);
#96=ADVANCED_FACE('',(#90),#95,.T.);
#97=CARTESIAN_POINT('',(6.45504817981134,10.2038566159577,0.455000000000000));
#98=VERTEX_POINT('',#97);
#99=CARTESIAN_POINT('',(6.45504817981134,10.2038566159577,0.455000000000000));
#100=DIRECTION('',(1.00000000000000,0.00000000000000,0.00000000000000));
#101=VECTOR('',#100,1.00000000000000);
#102=LINE('',#99,#101);
#103=EDGE_CURVE('',#67,#98,#102,.T.);
#104=ORIENTED_EDGE('',*,*,#103,.T.);
#105=CARTESIAN_POINT('',(6.45504817981134,4.20385661595769,0.455000000000000));
#106=VERTEX_POINT('',#105);
#107=CARTESIAN_POINT('',(6.45504817981134,4.20385661595769,0.455000000000000));
#108=DIRECTION('',(0.00000000000000,1.00000000000000,0.00000000000000));
#109=VECTOR('',#108,1.00000000000000);
#110=LINE('',#107,#109);
#111=EDGE_CURVE('',#106,#98,#110,.T.);
#112=ORIENTED_EDGE('',*,*,#111,.F.);
#113=CARTESIAN_POINT('',(6.45504817981134,4.20385661595769,0.455000000000000));
#114=DIRECTION('',(-1.00000000000000,0.00000000000000,0.00000000000000));
#115=VECTOR('',#114,1.00000000000000);
#116=LINE('',#113,#115);
#117=EDGE_CURVE('',#106,#75,#116,.T.);
#118=ORIENTED_EDGE('',*,*,#117,.T.);
#119=ORIENTED_EDGE('',*,*,#80,.T.);
#120=EDGE_LOOP('',(#104,#112,#118,#119));
#121=FACE_OUTER_BOUND('',#120,.T.);
#122=CARTESIAN_POINT('',(6.33504817981134,4.20385661595769,0.455000000000000));
#123=DIRECTION('',(0.00000000000000,0.00000000000000,-1.00000000000000));
#124=DIRECTION('',(-1.00000000000000,0.00000000000000,0.00000000000000));
#125=AXIS2_PLACEMENT_3D('',#122,#123,#124);
#126=PLANE('',#125);
#127=ADVANCED_FACE('',(#121),#126,.T.);
#128=CARTESIAN_POINT('',(6.45504817981134,10.2038566159577,-0.505000000000000));
#129=VERTEX_POINT('',#128);
#130=CARTESIAN_POINT('',(6.45504817981134,10.2038566159577,-0.505000000000000));
#131=DIRECTION('',(-0.00000000000000,-0.00000000000000,-1.00000000000000));
#132=VECTOR('',#131,1.00000000000000);
#133=LINE('',#130,#132);
#134=EDGE_CURVE('',#98,#129,#133,.T.);
#135=ORIENTED_EDGE('',*,*,#134,.T.);
#136=CARTESIAN_POINT('',(6.45504817981134,4.20385661595769,-0.505000000000000));
#137=VERTEX_POINT('',#136);
#138=CARTESIAN_POINT('',(6.45504817981134,4.20385661595769,-0.505000000000000));
#139=DIRECTION('',(0.00000000000000,1.00000000000000,0.00000000000000));
#140=VECTOR('',#139,1.00000000000000);
#141=LINE('',#138,#140);
#142=EDGE_CURVE('',#137,#129,#141,.T.);
#143=ORIENTED_EDGE('',*,*,#142,.F.);
#144=CARTESIAN_POINT('',(6.45504817981134,4.20385661595769,-0.505000000000000));
#145=DIRECTION('',(0.00000000000000,0.00000000000000,1.00000000000000));
#146=VECTOR('',#145,1.00000000000000);
#147=LINE('',#144,#146);
#148=EDGE_CURVE('',#137,#106,#147,.T.);
#149=ORIENTED_EDGE('',*,*,#148,.T.);
#150=ORIENTED_EDGE('',*,*,#111,.T.);
#151=EDGE_LOOP('',(#135,#143,#149,#150));
#152=FACE_OUTER_BOUND('',#151,.T.);
#153=CARTESIAN_POINT('',(6.45504817981134,4.20385661595769,-0.0249999999999999));
#154=DIRECTION('',(-1.00000000000000,0.00000000000000,0.00000000000000));
#155=DIRECTION('',(0.00000000000000,0.00000000000000,1.00000000000000));
#156=AXIS2_PLACEMENT_3D('',#153,#154,#155);
#157=PLANE('',#156);
#158=ADVANCED_FACE('',(#152),#157,.T.);
#159=CARTESIAN_POINT('',(6.53504817981134,10.2038566159577,-0.505000000000000));
#160=VERTEX_POINT('',#159);
#161=CARTESIAN_POINT('',(6.49504817981134,10.2038566159577,-0.505000000000000));
#162=DIRECTION('',(0.00000000000000,-1.00000000000000,6.12323399573677E-17));
#163=DIRECTION('',(1.00000000000000,0.00000000000000,0.00000000000000));
#164=AXIS2_PLACEMENT_3D('',#161,#162,#163);
#165=CIRCLE('',#164,0.0400000000000000);
#166=EDGE_CURVE('',#129,#160,#165,.T.);
#167=ORIENTED_EDGE('',*,*,#166,.T.);
#168=CARTESIAN_POINT('',(6.53504817981134,4.20385661595769,-0.505000000000000));
#169=VERTEX_POINT('',#168);
#170=CARTESIAN_POINT('',(6.53504817981134,4.20385661595769,-0.505000000000000));
#171=DIRECTION('',(0.00000000000000,1.00000000000000,0.00000000000000));
#172=VECTOR('',#171,1.00000000000000);
#173=LINE('',#170,#172);
#174=EDGE_CURVE('',#169,#160,#173,.T.);
#175=ORIENTED_EDGE('',*,*,#174,.F.);
#176=CARTESIAN_POINT('',(6.49504817981134,4.20385661595769,-0.505000000000000));
#177=DIRECTION('',(0.00000000000000,-1.00000000000000,6.12323399573677E-17));
#178=DIRECTION('',(1.00000000000000,0.00000000000000,0.00000000000000));
#179=AXIS2_PLACEMENT_3D('',#176,#177,#178);
#180=CIRCLE('',#179,0.0400000000000000);
#181=EDGE_CURVE('',#137,#169,#180,.T.);
#182=ORIENTED_EDGE('',*,*,#181,.F.);
#183=ORIENTED_EDGE('',*,*,#142,.T.);
#184=EDGE_LOOP('',(#167,#175,#182,#183));
#185=FACE_OUTER_BOUND('',#184,.T.);
#186=CARTESIAN_POINT('',(6.49504817981134,4.20385661595769,-0.505000000000000));
#187=DIRECTION('',(0.00000000000000,1.00000000000000,0.00000000000000));
#188=DIRECTION('',(0.00000000000000,0.00000000000000,1.00000000000000));
#189=AXIS2_PLACEMENT_3D('',#186,#187,#188);
#190=CYLINDRICAL_SURFACE('',#189,0.0400000000000000);
#191=ADVANCED_FACE('',(#185),#190,.T.);
#192=CARTESIAN_POINT('',(6.53504817981134,10.2038566159577,0.505000000000001));
#193=VERTEX_POINT('',#192);
#194=CARTESIAN_POINT('',(6.53504817981134,10.2038566159577,-0.505000000000000));
#195=DIRECTION('',(0.00000000000000,0.00000000000000,1.00000000000000));
#196=VECTOR('',#195,1.00000000000000);
#197=LINE('',#194,#196);
#198=EDGE_CURVE('',#160,#193,#197,.T.);
#199=ORIENTED_EDGE('',*,*,#198,.T.);
#200=CARTESIAN_POINT('',(6.53504817981134,4.20385661595769,0.505000000000001));
#201=VERTEX_POINT('',#200);
#202=CARTESIAN_POINT('',(6.53504817981134,4.20385661595769,0.505000000000001));
#203=DIRECTION('',(0.00000000000000,1.00000000000000,0.00000000000000));
#204=VECTOR('',#203,1.00000000000000);
#205=LINE('',#202,#204);
#206=EDGE_CURVE('',#201,#193,#205,.T.);
#207=ORIENTED_EDGE('',*,*,#206,.F.);
#208=CARTESIAN_POINT('',(6.53504817981134,4.20385661595769,-0.505000000000000));
#209=DIRECTION('',(0.00000000000000,0.00000000000000,1.00000000000000));
#210=VECTOR('',#209,1.00000000000000);
#211=LINE('',#208,#210);
#212=EDGE_CURVE('',#169,#201,#211,.T.);
#213=ORIENTED_EDGE('',*,*,#212,.F.);
#214=ORIENTED_EDGE('',*,*,#174,.T.);
#215=EDGE_LOOP('',(#199,#207,#213,#214));
#216=FACE_OUTER_BOUND('',#215,.T.);
#217=CARTESIAN_POINT('',(6.53504817981134,4.20385661595769,4.44089209850063E-16));
#218=DIRECTION('',(1.00000000000000,0.00000000000000,0.00000000000000));
#219=DIRECTION('',(-0.00000000000000,-0.00000000000000,-1.00000000000000));
#220=AXIS2_PLACEMENT_3D('',#217,#218,#219);
#221=PLANE('',#220);
#222=ADVANCED_FACE('',(#216),#221,.T.);
#223=CARTESIAN_POINT('',(6.50504817981134,10.2038566159577,0.535000000000001));
#224=VERTEX_POINT('',#223);
#225=CARTESIAN_POINT('',(6.50504817981134,10.2038566159577,0.505000000000001));
#226=DIRECTION('',(0.00000000000000,-1.00000000000000,6.12323399573677E-17));
#227=DIRECTION('',(1.00000000000000,0.00000000000000,0.00000000000000));
#228=AXIS2_PLACEMENT_3D('',#225,#226,#227);
#229=CIRCLE('',#228,0.0300000000000000);
#230=EDGE_CURVE('',#193,#224,#229,.T.);
#231=ORIENTED_EDGE('',*,*,#230,.T.);
#232=CARTESIAN_POINT('',(6.50504817981134,4.20385661595769,0.535000000000001));
#233=VERTEX_POINT('',#232);
#234=CARTESIAN_POINT('',(6.50504817981134,4.20385661595769,0.535000000000001));
#235=DIRECTION('',(0.00000000000000,1.00000000000000,0.00000000000000));
#236=VECTOR('',#235,1.00000000000000);
#237=LINE('',#234,#236);
#238=EDGE_CURVE('',#233,#224,#237,.T.);
#239=ORIENTED_EDGE('',*,*,#238,.F.);
#240=CARTESIAN_POINT('',(6.50504817981134,4.20385661595769,0.505000000000001));
#241=DIRECTION('',(0.00000000000000,-1.00000000000000,6.12323399573677E-17));
#242=DIRECTION('',(1.00000000000000,0.00000000000000,0.00000000000000));
#243=AXIS2_PLACEMENT_3D('',#240,#241,#242);
#244=CIRCLE('',#243,0.0300000000000000);
#245=EDGE_CURVE('',#201,#233,#244,.T.);
#246=ORIENTED_EDGE('',*,*,#245,.F.);
#247=ORIENTED_EDGE('',*,*,#206,.T.);
#248=EDGE_LOOP('',(#231,#239,#246,#247));
#249=FACE_OUTER_BOUND('',#248,.T.);
#250=CARTESIAN_POINT('',(6.50504817981134,4.20385661595769,0.505000000000001));
#251=DIRECTION('',(0.00000000000000,1.00000000000000,0.00000000000000));
#252=DIRECTION('',(-0.707106781186552,0.00000000000000,-0.707106781186543));
#253=AXIS2_PLACEMENT_3D('',#250,#251,#252);
#254=CYLINDRICAL_SURFACE('',#253,0.0300000000000000);
#255=ADVANCED_FACE('',(#249),#254,.T.);
#256=CARTESIAN_POINT('',(6.16504817981134,10.2038566159577,0.535000000000001));
#257=VERTEX_POINT('',#256);
#258=CARTESIAN_POINT('',(6.50504817981134,10.2038566159577,0.535000000000000));
#259=DIRECTION('',(-1.00000000000000,0.00000000000000,0.00000000000000));
#260=VECTOR('',#259,1.00000000000000);
#261=LINE('',#258,#260);
#262=EDGE_CURVE('',#224,#257,#261,.T.);
#263=ORIENTED_EDGE('',*,*,#262,.T.);
#264=CARTESIAN_POINT('',(6.16504817981134,4.20385661595769,0.535000000000001));
#265=VERTEX_POINT('',#264);
#266=CARTESIAN_POINT('',(6.16504817981134,4.20385661595769,0.535000000000001));
#267=DIRECTION('',(0.00000000000000,1.00000000000000,0.00000000000000));
#268=VECTOR('',#267,1.00000000000000);
#269=LINE('',#266,#268);
#270=EDGE_CURVE('',#265,#257,#269,.T.);
#271=ORIENTED_EDGE('',*,*,#270,.F.);
#272=CARTESIAN_POINT('',(6.50504817981134,4.20385661595769,0.535000000000000));
#273=DIRECTION('',(-1.00000000000000,0.00000000000000,0.00000000000000));
#274=VECTOR('',#273,1.00000000000000);
#275=LINE('',#272,#274);
#276=EDGE_CURVE('',#233,#265,#275,.T.);
#277=ORIENTED_EDGE('',*,*,#276,.F.);
#278=ORIENTED_EDGE('',*,*,#238,.T.);
#279=EDGE_LOOP('',(#263,#271,#277,#278));
#280=FACE_OUTER_BOUND('',#279,.T.);
#281=CARTESIAN_POINT('',(6.33504817981134,4.20385661595769,0.535000000000000));
#282=DIRECTION('',(0.00000000000000,-0.00000000000000,1.00000000000000));
#283=DIRECTION('',(1.00000000000000,-0.00000000000000,-0.00000000000000));
#284=AXIS2_PLACEMENT_3D('',#281,#282,#283);
#285=PLANE('',#284);
#286=ADVANCED_FACE('',(#280),#285,.T.);
#287=CARTESIAN_POINT('',(6.13504817981134,10.2038566159577,0.505000000000001));
#288=VERTEX_POINT('',#287);
#289=CARTESIAN_POINT('',(6.16504817981134,10.2038566159577,0.505000000000001));
#290=DIRECTION('',(0.00000000000000,-1.00000000000000,6.12323399573677E-17));
#291=DIRECTION('',(1.00000000000000,0.00000000000000,0.00000000000000));
#292=AXIS2_PLACEMENT_3D('',#289,#290,#291);
#293=CIRCLE('',#292,0.0300000000000000);
#294=EDGE_CURVE('',#257,#288,#293,.T.);
#295=ORIENTED_EDGE('',*,*,#294,.T.);
#296=CARTESIAN_POINT('',(6.13504817981134,4.20385661595769,0.505000000000001));
#297=VERTEX_POINT('',#296);
#298=CARTESIAN_POINT('',(6.13504817981134,4.20385661595769,0.505000000000001));
#299=DIRECTION('',(0.00000000000000,1.00000000000000,0.00000000000000));
#300=VECTOR('',#299,1.00000000000000);
#301=LINE('',#298,#300);
#302=EDGE_CURVE('',#297,#288,#301,.T.);
#303=ORIENTED_EDGE('',*,*,#302,.F.);
#304=CARTESIAN_POINT('',(6.16504817981134,4.20385661595769,0.505000000000001));
#305=DIRECTION('',(0.00000000000000,-1.00000000000000,6.12323399573677E-17));
#306=DIRECTION('',(1.00000000000000,0.00000000000000,0.00000000000000));
#307=AXIS2_PLACEMENT_3D('',#304,#305,#306);
#308=CIRCLE('',#307,0.0300000000000000);
#309=EDGE_CURVE('',#265,#297,#308,.T.);
#310=ORIENTED_EDGE('',*,*,#309,.F.);
#311=ORIENTED_EDGE('',*,*,#270,.T.);
#312=EDGE_LOOP('',(#295,#303,#310,#311));
#313=FACE_OUTER_BOUND('',#312,.T.);
#314=CARTESIAN_POINT('',(6.16504817981134,4.20385661595769,0.505000000000001));
#315=DIRECTION('',(0.00000000000000,1.00000000000000,0.00000000000000));
#316=DIRECTION('',(1.00000000000000,-0.00000000000000,0.00000000000000));
#317=AXIS2_PLACEMENT_3D('',#314,#315,#316);
#318=CYLINDRICAL_SURFACE('',#317,0.0300000000000000);
#319=ADVANCED_FACE('',(#313),#318,.T.);
#320=CARTESIAN_POINT('',(6.13504817981134,10.2038566159577,0.505000000000001));
#321=DIRECTION('',(0.00000000000000,0.00000000000000,-1.00000000000000));
#322=VECTOR('',#321,1.00000000000000);
#323=LINE('',#320,#322);
#324=EDGE_CURVE('',#288,#25,#323,.T.);
#325=ORIENTED_EDGE('',*,*,#324,.T.);
#326=ORIENTED_EDGE('',*,*,#56,.F.);
#327=CARTESIAN_POINT('',(6.13504817981134,4.20385661595769,0.505000000000001));
#328=DIRECTION('',(0.00000000000000,0.00000000000000,-1.00000000000000));
#329=VECTOR('',#328,1.00000000000000);
#330=LINE('',#327,#329);
#331=EDGE_CURVE('',#297,#44,#330,.T.);
#332=ORIENTED_EDGE('',*,*,#331,.F.);
#333=ORIENTED_EDGE('',*,*,#302,.T.);
#334=EDGE_LOOP('',(#325,#326,#332,#333));
#335=FACE_OUTER_BOUND('',#334,.T.);
#336=CARTESIAN_POINT('',(6.13504817981134,4.20385661595769,4.44089209850063E-16));
#337=DIRECTION('',(-1.00000000000000,0.00000000000000,0.00000000000000));
#338=DIRECTION('',(-0.00000000000000,-0.00000000000000,1.00000000000000));
#339=AXIS2_PLACEMENT_3D('',#336,#337,#338);
#340=PLANE('',#339);
#341=ADVANCED_FACE('',(#335),#340,.T.);
#342=ORIENTED_EDGE('',*,*,#33,.F.);
#343=ORIENTED_EDGE('',*,*,#324,.F.);
#344=ORIENTED_EDGE('',*,*,#294,.F.);
#345=ORIENTED_EDGE('',*,*,#262,.F.);
#346=ORIENTED_EDGE('',*,*,#230,.F.);
#347=ORIENTED_EDGE('',*,*,#198,.F.);
#348=ORIENTED_EDGE('',*,*,#166,.F.);
#349=ORIENTED_EDGE('',*,*,#134,.F.);
#350=ORIENTED_EDGE('',*,*,#103,.F.);
#351=ORIENTED_EDGE('',*,*,#72,.F.);
#352=EDGE_LOOP('',(#342,#343,#344,#345,#346,#347,#348,#349,#350,#351));
#353=FACE_OUTER_BOUND('',#352,.T.);
#354=CARTESIAN_POINT('',(6.13504817981134,10.2038566159577,0.189551750000001));
#355=DIRECTION('',(0.00000000000000,1.00000000000000,0.00000000000000));
#356=DIRECTION('',(-1.00000000000000,0.00000000000000,0.00000000000000));
#357=AXIS2_PLACEMENT_3D('',#354,#355,#356);
#358=PLANE('',#357);
#359=ADVANCED_FACE('',(#353),#358,.T.);
#360=ORIENTED_EDGE('',*,*,#331,.T.);
#361=ORIENTED_EDGE('',*,*,#50,.T.);
#362=ORIENTED_EDGE('',*,*,#86,.F.);
#363=ORIENTED_EDGE('',*,*,#117,.F.);
#364=ORIENTED_EDGE('',*,*,#148,.F.);
#365=ORIENTED_EDGE('',*,*,#181,.T.);
#366=ORIENTED_EDGE('',*,*,#212,.T.);
#367=ORIENTED_EDGE('',*,*,#245,.T.);
#368=ORIENTED_EDGE('',*,*,#276,.T.);
#369=ORIENTED_EDGE('',*,*,#309,.T.);
#370=EDGE_LOOP('',(#360,#361,#362,#363,#364,#365,#366,#367,#368,#369));
#371=FACE_OUTER_BOUND('',#370,.T.);
#372=CARTESIAN_POINT('',(6.13504817981134,4.20385661595769,0.189551750000001));
#373=DIRECTION('',(-0.00000000000000,1.00000000000000,-0.00000000000000));
#374=DIRECTION('',(-1.00000000000000,-0.00000000000000,0.00000000000000));
#375=AXIS2_PLACEMENT_3D('',#372,#373,#374);
#376=PLANE('',#375);
#377=ADVANCED_FACE('',(#371),#376,.F.);
#378=CLOSED_SHELL('',(#65,#96,#127,#158,#191,#222,#255,#286,#319,#341,#359,#377));
#379=MANIFOLD_SOLID_BREP('',#378);
#380=COLOUR_RGB('',1.00000000000000,0.00000000000000,0.00000000000000);
#381=FILL_AREA_STYLE_COLOUR('',#380);
#382=FILL_AREA_STYLE('',(#381));
#383=SURFACE_STYLE_FILL_AREA(#382);
#384=SURFACE_SIDE_STYLE('',(#383));
#385=SURFACE_STYLE_USAGE(.BOTH.,#384);
#386=PRESENTATION_STYLE_ASSIGNMENT((#385));
#387=STYLED_ITEM('',(#386),#379);
#388=ADVANCED_BREP_SHAPE_REPRESENTATION('',(#379,#23),#18);
#389=PRODUCT('', '', ' ',(#2));
#390=PRODUCT_DEFINITION_FORMATION_WITH_SPECIFIED_SOURCE (' ', ' ', #389, .NOT_KNOWN.) ;
#391=PRODUCT_CATEGORY('part','') ;
#392=PRODUCT_RELATED_PRODUCT_CATEGORY('detail', ' ', (#389)) ;
#393=PRODUCT_CATEGORY_RELATIONSHIP(' ', ' ', #391, #392);
#394=PRODUCT_DEFINITION('', '', #390, #1);
#395=PRODUCT_DEFINITION_SHAPE('NONE', 'NONE', #394);
#396=SHAPE_DEFINITION_REPRESENTATION(#395, #388);
#397=PRESENTATION_LAYER_ASSIGNMENT('1','Unnamed [1]',(#379));
#398=MECHANICAL_DESIGN_GEOMETRIC_PRESENTATION_REPRESENTATION('',(#387), #18);
ENDSEC;
END-ISO-10303-21;
