ISO-10303-21;
HEADER;
FILE_DESCRIPTION((''),'2;1');
FILE_NAME('C:/Program Files/Kubotek/KeyCreatorPro.2021.SP0/STEP/SG1089.STP', '2021-03-09T13:05:07',(''), (''), 'KCM Version 2.0.6974.6974', 'KeyCreator Pro', '');
FILE_SCHEMA(('AUTOMOTIVE_DESIGN'));
ENDSEC;
DATA;
#1=PRODUCT_DEFINITION_CONTEXT('',#4,'design');
#2=PRODUCT_CONTEXT('',#4,'mechanical');
#3=APPLICATION_PROTOCOL_DEFINITION('International Standard','automotive_design',2001,#4);
#4=APPLICATION_CONTEXT('automotive design');
#10=DIMENSIONAL_EXPONENTS(1.0,0.0,0.0,0.0,0.0,0.0,0.0);
#11=DIMENSIONAL_EXPONENTS(0.0,0.0,0.0,0.0,0.0,0.0,0.0);
#12=(NAMED_UNIT(#10)LENGTH_UNIT()SI_UNIT(.MILLI.,.METRE.));
#13=(NAMED_UNIT(#11)PLANE_ANGLE_UNIT()SI_UNIT($,.RADIAN.));
#14=(NAMED_UNIT(#11)SOLID_ANGLE_UNIT()SI_UNIT($,.STERADIAN.));
#15=LENGTH_MEASURE_WITH_UNIT(LENGTH_MEASURE(25.4),#12);
#16= (CONVERSION_BASED_UNIT('INCH',#15)LENGTH_UNIT()NAMED_UNIT(#10));
#17=UNCERTAINTY_MEASURE_WITH_UNIT(LENGTH_MEASURE(1.0E-006),#16,'','');
#18=(GEOMETRIC_REPRESENTATION_CONTEXT(3)GLOBAL_UNCERTAINTY_ASSIGNED_CONTEXT((#17))GLOBAL_UNIT_ASSIGNED_CONTEXT((#16,#13,#14))REPRESENTATION_CONTEXT('NONE','WORKSPACE'));
#20=CARTESIAN_POINT('',(0.00000000000000,0.00000000000000,0.00000000000000));
#21=DIRECTION('',(0.00000000000000,0.00000000000000,1.00000000000000));
#22=DIRECTION('',(1.00000000000000,0.00000000000000,0.00000000000000));
#23=AXIS2_PLACEMENT_3D('',#20,#21,#22);
#24=CARTESIAN_POINT('',(7.67240087473214,4.94118914049817,-0.0939999999999999));
#25=VERTEX_POINT('',#24);
#26=CARTESIAN_POINT('',(7.67240087473214,4.94118914049817,0.0939999999999999));
#27=VERTEX_POINT('',#26);
#28=CARTESIAN_POINT('',(7.67240087473214,4.94118914049817,0.0939999999999999));
#29=DIRECTION('',(0.00000000000000,0.00000000000000,1.00000000000000));
#30=VECTOR('',#29,1.00000000000000);
#31=LINE('',#28,#30);
#32=EDGE_CURVE('',#25,#27,#31,.T.);
#33=ORIENTED_EDGE('',*,*,#32,.T.);
#34=CARTESIAN_POINT('',(7.67240087473214,-1.05881085950183,0.0939999999999999));
#35=VERTEX_POINT('',#34);
#36=CARTESIAN_POINT('',(7.67240087473214,1.94118914049817,0.0939999999999999));
#37=DIRECTION('',(0.00000000000000,-1.00000000000000,0.00000000000000));
#38=VECTOR('',#37,1.00000000000000);
#39=LINE('',#36,#38);
#40=EDGE_CURVE('',#27,#35,#39,.T.);
#41=ORIENTED_EDGE('',*,*,#40,.T.);
#42=CARTESIAN_POINT('',(7.67240087473214,-1.05881085950183,-0.0939999999999999));
#43=VERTEX_POINT('',#42);
#44=CARTESIAN_POINT('',(7.67240087473214,-1.05881085950183,0.0939999999999999));
#45=DIRECTION('',(0.00000000000000,0.00000000000000,-1.00000000000000));
#46=VECTOR('',#45,1.00000000000000);
#47=LINE('',#44,#46);
#48=EDGE_CURVE('',#35,#43,#47,.T.);
#49=ORIENTED_EDGE('',*,*,#48,.T.);
#50=CARTESIAN_POINT('',(7.67240087473214,1.94118914049817,-0.0939999999999999));
#51=DIRECTION('',(0.00000000000000,1.00000000000000,0.00000000000000));
#52=VECTOR('',#51,1.00000000000000);
#53=LINE('',#50,#52);
#54=EDGE_CURVE('',#43,#25,#53,.T.);
#55=ORIENTED_EDGE('',*,*,#54,.T.);
#56=EDGE_LOOP('',(#33,#41,#49,#55));
#57=FACE_OUTER_BOUND('',#56,.T.);
#58=CARTESIAN_POINT('',(7.67240087473214,1.94118914049817,0.00000000000000));
#59=DIRECTION('',(1.00000000000000,-0.00000000000000,0.00000000000000));
#60=DIRECTION('',(0.00000000000000,0.00000000000000,-1.00000000000000));
#61=AXIS2_PLACEMENT_3D('',#58,#59,#60);
#62=PLANE('',#61);
#63=ADVANCED_FACE('',(#57),#62,.T.);
#64=CARTESIAN_POINT('',(7.89640087473214,4.94118914049817,0.0939999999999999));
#65=VERTEX_POINT('',#64);
#66=CARTESIAN_POINT('',(7.67240087473214,4.94118914049817,0.0939999999999999));
#67=DIRECTION('',(1.00000000000000,0.00000000000000,0.00000000000000));
#68=VECTOR('',#67,1.00000000000000);
#69=LINE('',#66,#68);
#70=EDGE_CURVE('',#27,#65,#69,.T.);
#71=ORIENTED_EDGE('',*,*,#70,.T.);
#72=CARTESIAN_POINT('',(7.89640087473214,-1.05881085950183,0.0939999999999999));
#73=VERTEX_POINT('',#72);
#74=CARTESIAN_POINT('',(7.89640087473214,1.94118914049817,0.0939999999999999));
#75=DIRECTION('',(0.00000000000000,1.00000000000000,0.00000000000000));
#76=VECTOR('',#75,1.00000000000000);
#77=LINE('',#74,#76);
#78=EDGE_CURVE('',#73,#65,#77,.T.);
#79=ORIENTED_EDGE('',*,*,#78,.F.);
#80=CARTESIAN_POINT('',(7.67240087473214,-1.05881085950183,0.0939999999999999));
#81=DIRECTION('',(-1.00000000000000,-0.00000000000000,-0.00000000000000));
#82=VECTOR('',#81,1.00000000000000);
#83=LINE('',#80,#82);
#84=EDGE_CURVE('',#73,#35,#83,.T.);
#85=ORIENTED_EDGE('',*,*,#84,.T.);
#86=ORIENTED_EDGE('',*,*,#40,.F.);
#87=EDGE_LOOP('',(#71,#79,#85,#86));
#88=FACE_OUTER_BOUND('',#87,.T.);
#89=CARTESIAN_POINT('',(7.78440087473214,1.94118914049817,0.0939999999999999));
#90=DIRECTION('',(0.00000000000000,0.00000000000000,-1.00000000000000));
#91=DIRECTION('',(-1.00000000000000,-0.00000000000000,-0.00000000000000));
#92=AXIS2_PLACEMENT_3D('',#89,#90,#91);
#93=PLANE('',#92);
#94=ADVANCED_FACE('',(#88),#93,.T.);
#95=CARTESIAN_POINT('',(7.89640087473214,4.94118914049817,-0.0939999999999999));
#96=VERTEX_POINT('',#95);
#97=CARTESIAN_POINT('',(7.89640087473214,4.94118914049817,0.0939999999999999));
#98=DIRECTION('',(0.00000000000000,0.00000000000000,-1.00000000000000));
#99=VECTOR('',#98,1.00000000000000);
#100=LINE('',#97,#99);
#101=EDGE_CURVE('',#65,#96,#100,.T.);
#102=ORIENTED_EDGE('',*,*,#101,.T.);
#103=CARTESIAN_POINT('',(7.89640087473214,-1.05881085950183,-0.0939999999999999));
#104=VERTEX_POINT('',#103);
#105=CARTESIAN_POINT('',(7.89640087473214,1.94118914049817,-0.0939999999999999));
#106=DIRECTION('',(0.00000000000000,-1.00000000000000,0.00000000000000));
#107=VECTOR('',#106,1.00000000000000);
#108=LINE('',#105,#107);
#109=EDGE_CURVE('',#96,#104,#108,.T.);
#110=ORIENTED_EDGE('',*,*,#109,.T.);
#111=CARTESIAN_POINT('',(7.89640087473214,-1.05881085950183,0.0939999999999999));
#112=DIRECTION('',(0.00000000000000,0.00000000000000,1.00000000000000));
#113=VECTOR('',#112,1.00000000000000);
#114=LINE('',#111,#113);
#115=EDGE_CURVE('',#104,#73,#114,.T.);
#116=ORIENTED_EDGE('',*,*,#115,.T.);
#117=ORIENTED_EDGE('',*,*,#78,.T.);
#118=EDGE_LOOP('',(#102,#110,#116,#117));
#119=FACE_OUTER_BOUND('',#118,.T.);
#120=CARTESIAN_POINT('',(7.89640087473214,1.94118914049817,0.00000000000000));
#121=DIRECTION('',(-1.00000000000000,0.00000000000000,0.00000000000000));
#122=DIRECTION('',(-0.00000000000000,-0.00000000000000,1.00000000000000));
#123=AXIS2_PLACEMENT_3D('',#120,#121,#122);
#124=PLANE('',#123);
#125=ADVANCED_FACE('',(#119),#124,.T.);
#126=CARTESIAN_POINT('',(7.67240087473214,4.94118914049817,-0.0939999999999999));
#127=DIRECTION('',(-1.00000000000000,-0.00000000000000,-0.00000000000000));
#128=VECTOR('',#127,1.00000000000000);
#129=LINE('',#126,#128);
#130=EDGE_CURVE('',#96,#25,#129,.T.);
#131=ORIENTED_EDGE('',*,*,#130,.T.);
#132=ORIENTED_EDGE('',*,*,#54,.F.);
#133=CARTESIAN_POINT('',(7.67240087473214,-1.05881085950183,-0.0939999999999999));
#134=DIRECTION('',(1.00000000000000,0.00000000000000,0.00000000000000));
#135=VECTOR('',#134,1.00000000000000);
#136=LINE('',#133,#135);
#137=EDGE_CURVE('',#43,#104,#136,.T.);
#138=ORIENTED_EDGE('',*,*,#137,.T.);
#139=ORIENTED_EDGE('',*,*,#109,.F.);
#140=EDGE_LOOP('',(#131,#132,#138,#139));
#141=FACE_OUTER_BOUND('',#140,.T.);
#142=CARTESIAN_POINT('',(7.78440087473214,1.94118914049817,-0.0939999999999999));
#143=DIRECTION('',(0.00000000000000,0.00000000000000,1.00000000000000));
#144=DIRECTION('',(1.00000000000000,0.00000000000000,0.00000000000000));
#145=AXIS2_PLACEMENT_3D('',#142,#143,#144);
#146=PLANE('',#145);
#147=ADVANCED_FACE('',(#141),#146,.T.);
#148=CARTESIAN_POINT('',(8.40940087473214,4.94118914049817,0.0939999999999999));
#149=VERTEX_POINT('',#148);
#150=CARTESIAN_POINT('',(8.40940087473214,4.94118914049817,0.282000000000000));
#151=VERTEX_POINT('',#150);
#152=CARTESIAN_POINT('',(8.40940087473214,4.94118914049817,0.282000000000000));
#153=DIRECTION('',(0.00000000000000,0.00000000000000,1.00000000000000));
#154=VECTOR('',#153,1.00000000000000);
#155=LINE('',#152,#154);
#156=EDGE_CURVE('',#149,#151,#155,.T.);
#157=ORIENTED_EDGE('',*,*,#156,.T.);
#158=CARTESIAN_POINT('',(8.40940087473214,-1.05881085950183,0.282000000000000));
#159=VERTEX_POINT('',#158);
#160=CARTESIAN_POINT('',(8.40940087473214,1.94118914049817,0.282000000000000));
#161=DIRECTION('',(0.00000000000000,1.00000000000000,0.00000000000000));
#162=VECTOR('',#161,1.00000000000000);
#163=LINE('',#160,#162);
#164=EDGE_CURVE('',#159,#151,#163,.T.);
#165=ORIENTED_EDGE('',*,*,#164,.F.);
#166=CARTESIAN_POINT('',(8.40940087473214,-1.05881085950183,0.0939999999999999));
#167=VERTEX_POINT('',#166);
#168=CARTESIAN_POINT('',(8.40940087473214,-1.05881085950183,0.282000000000000));
#169=DIRECTION('',(0.00000000000000,0.00000000000000,-1.00000000000000));
#170=VECTOR('',#169,1.00000000000000);
#171=LINE('',#168,#170);
#172=EDGE_CURVE('',#159,#167,#171,.T.);
#173=ORIENTED_EDGE('',*,*,#172,.T.);
#174=CARTESIAN_POINT('',(8.40940087473214,1.94118914049817,0.0939999999999999));
#175=DIRECTION('',(0.00000000000000,1.00000000000000,0.00000000000000));
#176=VECTOR('',#175,1.00000000000000);
#177=LINE('',#174,#176);
#178=EDGE_CURVE('',#167,#149,#177,.T.);
#179=ORIENTED_EDGE('',*,*,#178,.T.);
#180=EDGE_LOOP('',(#157,#165,#173,#179));
#181=FACE_OUTER_BOUND('',#180,.T.);
#182=CARTESIAN_POINT('',(8.40940087473214,1.94118914049817,0.188000000000000));
#183=DIRECTION('',(1.00000000000000,-0.00000000000000,0.00000000000000));
#184=DIRECTION('',(0.00000000000000,0.00000000000000,-1.00000000000000));
#185=AXIS2_PLACEMENT_3D('',#182,#183,#184);
#186=PLANE('',#185);
#187=ADVANCED_FACE('',(#181),#186,.T.);
#188=CARTESIAN_POINT('',(7.15940087473214,4.94118914049817,0.282000000000000));
#189=VERTEX_POINT('',#188);
#190=CARTESIAN_POINT('',(8.40940087473214,4.94118914049817,0.282000000000000));
#191=DIRECTION('',(-1.00000000000000,0.00000000000000,0.00000000000000));
#192=VECTOR('',#191,1.00000000000000);
#193=LINE('',#190,#192);
#194=EDGE_CURVE('',#151,#189,#193,.T.);
#195=ORIENTED_EDGE('',*,*,#194,.T.);
#196=CARTESIAN_POINT('',(7.15940087473214,-1.05881085950183,0.282000000000000));
#197=VERTEX_POINT('',#196);
#198=CARTESIAN_POINT('',(7.15940087473214,1.94118914049817,0.282000000000000));
#199=DIRECTION('',(0.00000000000000,-1.00000000000000,0.00000000000000));
#200=VECTOR('',#199,1.00000000000000);
#201=LINE('',#198,#200);
#202=EDGE_CURVE('',#189,#197,#201,.T.);
#203=ORIENTED_EDGE('',*,*,#202,.T.);
#204=CARTESIAN_POINT('',(8.40940087473214,-1.05881085950183,0.282000000000000));
#205=DIRECTION('',(1.00000000000000,0.00000000000000,0.00000000000000));
#206=VECTOR('',#205,1.00000000000000);
#207=LINE('',#204,#206);
#208=EDGE_CURVE('',#197,#159,#207,.T.);
#209=ORIENTED_EDGE('',*,*,#208,.T.);
#210=ORIENTED_EDGE('',*,*,#164,.T.);
#211=EDGE_LOOP('',(#195,#203,#209,#210));
#212=FACE_OUTER_BOUND('',#211,.T.);
#213=CARTESIAN_POINT('',(7.78440087473214,1.94118914049817,0.282000000000000));
#214=DIRECTION('',(0.00000000000000,-0.00000000000000,1.00000000000000));
#215=DIRECTION('',(1.00000000000000,-0.00000000000000,-0.00000000000000));
#216=AXIS2_PLACEMENT_3D('',#213,#214,#215);
#217=PLANE('',#216);
#218=ADVANCED_FACE('',(#212),#217,.T.);
#219=CARTESIAN_POINT('',(7.15940087473214,4.94118914049817,0.0939999999999999));
#220=VERTEX_POINT('',#219);
#221=CARTESIAN_POINT('',(7.15940087473214,4.94118914049817,0.282000000000000));
#222=DIRECTION('',(0.00000000000000,0.00000000000000,-1.00000000000000));
#223=VECTOR('',#222,1.00000000000000);
#224=LINE('',#221,#223);
#225=EDGE_CURVE('',#189,#220,#224,.T.);
#226=ORIENTED_EDGE('',*,*,#225,.T.);
#227=CARTESIAN_POINT('',(7.15940087473214,-1.05881085950183,0.0939999999999999));
#228=VERTEX_POINT('',#227);
#229=CARTESIAN_POINT('',(7.15940087473214,1.94118914049817,0.0939999999999999));
#230=DIRECTION('',(0.00000000000000,1.00000000000000,0.00000000000000));
#231=VECTOR('',#230,1.00000000000000);
#232=LINE('',#229,#231);
#233=EDGE_CURVE('',#228,#220,#232,.T.);
#234=ORIENTED_EDGE('',*,*,#233,.F.);
#235=CARTESIAN_POINT('',(7.15940087473214,-1.05881085950183,0.282000000000000));
#236=DIRECTION('',(0.00000000000000,0.00000000000000,1.00000000000000));
#237=VECTOR('',#236,1.00000000000000);
#238=LINE('',#235,#237);
#239=EDGE_CURVE('',#228,#197,#238,.T.);
#240=ORIENTED_EDGE('',*,*,#239,.T.);
#241=ORIENTED_EDGE('',*,*,#202,.F.);
#242=EDGE_LOOP('',(#226,#234,#240,#241));
#243=FACE_OUTER_BOUND('',#242,.T.);
#244=CARTESIAN_POINT('',(7.15940087473214,1.94118914049817,0.188000000000000));
#245=DIRECTION('',(-1.00000000000000,0.00000000000000,0.00000000000000));
#246=DIRECTION('',(-0.00000000000000,-0.00000000000000,1.00000000000000));
#247=AXIS2_PLACEMENT_3D('',#244,#245,#246);
#248=PLANE('',#247);
#249=ADVANCED_FACE('',(#243),#248,.T.);
#250=CARTESIAN_POINT('',(7.48440087473214,4.94118914049817,0.0939999999999999));
#251=VERTEX_POINT('',#250);
#252=CARTESIAN_POINT('',(7.15940087473214,4.94118914049817,0.0939999999999999));
#253=DIRECTION('',(1.00000000000000,0.00000000000000,0.00000000000000));
#254=VECTOR('',#253,1.00000000000000);
#255=LINE('',#252,#254);
#256=EDGE_CURVE('',#220,#251,#255,.T.);
#257=ORIENTED_EDGE('',*,*,#256,.T.);
#258=CARTESIAN_POINT('',(7.48440087473214,-1.05881085950183,0.0939999999999999));
#259=VERTEX_POINT('',#258);
#260=CARTESIAN_POINT('',(7.48440087473214,1.94118914049817,0.0939999999999999));
#261=DIRECTION('',(0.00000000000000,-1.00000000000000,0.00000000000000));
#262=VECTOR('',#261,1.00000000000000);
#263=LINE('',#260,#262);
#264=EDGE_CURVE('',#251,#259,#263,.T.);
#265=ORIENTED_EDGE('',*,*,#264,.T.);
#266=CARTESIAN_POINT('',(7.15940087473214,-1.05881085950183,0.0939999999999999));
#267=DIRECTION('',(-1.00000000000000,-0.00000000000000,-0.00000000000000));
#268=VECTOR('',#267,1.00000000000000);
#269=LINE('',#266,#268);
#270=EDGE_CURVE('',#259,#228,#269,.T.);
#271=ORIENTED_EDGE('',*,*,#270,.T.);
#272=ORIENTED_EDGE('',*,*,#233,.T.);
#273=EDGE_LOOP('',(#257,#265,#271,#272));
#274=FACE_OUTER_BOUND('',#273,.T.);
#275=CARTESIAN_POINT('',(7.32190087473214,1.94118914049817,0.0939999999999999));
#276=DIRECTION('',(0.00000000000000,0.00000000000000,-1.00000000000000));
#277=DIRECTION('',(-1.00000000000000,-0.00000000000000,-0.00000000000000));
#278=AXIS2_PLACEMENT_3D('',#275,#276,#277);
#279=PLANE('',#278);
#280=ADVANCED_FACE('',(#274),#279,.T.);
#281=CARTESIAN_POINT('',(7.48440087473214,4.94118914049817,-0.0939999999999999));
#282=VERTEX_POINT('',#281);
#283=CARTESIAN_POINT('',(7.48440087473214,4.94118914049817,0.0939999999999999));
#284=DIRECTION('',(0.00000000000000,0.00000000000000,-1.00000000000000));
#285=VECTOR('',#284,1.00000000000000);
#286=LINE('',#283,#285);
#287=EDGE_CURVE('',#251,#282,#286,.T.);
#288=ORIENTED_EDGE('',*,*,#287,.T.);
#289=CARTESIAN_POINT('',(7.48440087473214,-1.05881085950183,-0.0939999999999999));
#290=VERTEX_POINT('',#289);
#291=CARTESIAN_POINT('',(7.48440087473214,1.94118914049817,-0.0939999999999999));
#292=DIRECTION('',(0.00000000000000,1.00000000000000,0.00000000000000));
#293=VECTOR('',#292,1.00000000000000);
#294=LINE('',#291,#293);
#295=EDGE_CURVE('',#290,#282,#294,.T.);
#296=ORIENTED_EDGE('',*,*,#295,.F.);
#297=CARTESIAN_POINT('',(7.48440087473214,-1.05881085950183,0.0939999999999999));
#298=DIRECTION('',(0.00000000000000,0.00000000000000,1.00000000000000));
#299=VECTOR('',#298,1.00000000000000);
#300=LINE('',#297,#299);
#301=EDGE_CURVE('',#290,#259,#300,.T.);
#302=ORIENTED_EDGE('',*,*,#301,.T.);
#303=ORIENTED_EDGE('',*,*,#264,.F.);
#304=EDGE_LOOP('',(#288,#296,#302,#303));
#305=FACE_OUTER_BOUND('',#304,.T.);
#306=CARTESIAN_POINT('',(7.48440087473214,1.94118914049817,0.00000000000000));
#307=DIRECTION('',(-1.00000000000000,0.00000000000000,0.00000000000000));
#308=DIRECTION('',(-0.00000000000000,-0.00000000000000,1.00000000000000));
#309=AXIS2_PLACEMENT_3D('',#306,#307,#308);
#310=PLANE('',#309);
#311=ADVANCED_FACE('',(#305),#310,.T.);
#312=CARTESIAN_POINT('',(6.78440087473214,4.94118914049817,-0.0939999999999999));
#313=VERTEX_POINT('',#312);
#314=CARTESIAN_POINT('',(6.78440087473214,4.94118914049817,-0.0939999999999999));
#315=DIRECTION('',(-1.00000000000000,-0.00000000000000,-0.00000000000000));
#316=VECTOR('',#315,1.00000000000000);
#317=LINE('',#314,#316);
#318=EDGE_CURVE('',#282,#313,#317,.T.);
#319=ORIENTED_EDGE('',*,*,#318,.T.);
#320=CARTESIAN_POINT('',(6.78440087473214,-1.05881085950183,-0.0939999999999999));
#321=VERTEX_POINT('',#320);
#322=CARTESIAN_POINT('',(6.78440087473214,1.94118914049817,-0.0939999999999999));
#323=DIRECTION('',(0.00000000000000,1.00000000000000,0.00000000000000));
#324=VECTOR('',#323,1.00000000000000);
#325=LINE('',#322,#324);
#326=EDGE_CURVE('',#321,#313,#325,.T.);
#327=ORIENTED_EDGE('',*,*,#326,.F.);
#328=CARTESIAN_POINT('',(6.78440087473214,-1.05881085950183,-0.0939999999999999));
#329=DIRECTION('',(1.00000000000000,0.00000000000000,0.00000000000000));
#330=VECTOR('',#329,1.00000000000000);
#331=LINE('',#328,#330);
#332=EDGE_CURVE('',#321,#290,#331,.T.);
#333=ORIENTED_EDGE('',*,*,#332,.T.);
#334=ORIENTED_EDGE('',*,*,#295,.T.);
#335=EDGE_LOOP('',(#319,#327,#333,#334));
#336=FACE_OUTER_BOUND('',#335,.T.);
#337=CARTESIAN_POINT('',(7.13440087473214,1.94118914049817,-0.0939999999999999));
#338=DIRECTION('',(0.00000000000000,0.00000000000000,1.00000000000000));
#339=DIRECTION('',(1.00000000000000,0.00000000000000,0.00000000000000));
#340=AXIS2_PLACEMENT_3D('',#337,#338,#339);
#341=PLANE('',#340);
#342=ADVANCED_FACE('',(#336),#341,.T.);
#343=CARTESIAN_POINT('',(6.78440087473214,4.94118914049817,-0.282000000000000));
#344=VERTEX_POINT('',#343);
#345=CARTESIAN_POINT('',(6.78440087473214,4.94118914049817,-0.0939999999999999));
#346=DIRECTION('',(0.00000000000000,-1.18108832406931E-15,-1.00000000000000));
#347=VECTOR('',#346,1.00000000000000);
#348=LINE('',#345,#347);
#349=EDGE_CURVE('',#313,#344,#348,.T.);
#350=ORIENTED_EDGE('',*,*,#349,.T.);
#351=CARTESIAN_POINT('',(6.78440087473214,-1.05881085950183,-0.282000000000000));
#352=VERTEX_POINT('',#351);
#353=CARTESIAN_POINT('',(6.78440087473214,1.94118914049817,-0.282000000000000));
#354=DIRECTION('',(0.00000000000000,1.00000000000000,0.00000000000000));
#355=VECTOR('',#354,1.00000000000000);
#356=LINE('',#353,#355);
#357=EDGE_CURVE('',#352,#344,#356,.T.);
#358=ORIENTED_EDGE('',*,*,#357,.F.);
#359=CARTESIAN_POINT('',(6.78440087473214,-1.05881085950183,-0.0939999999999999));
#360=DIRECTION('',(0.00000000000000,1.18108832406931E-15,1.00000000000000));
#361=VECTOR('',#360,1.00000000000000);
#362=LINE('',#359,#361);
#363=EDGE_CURVE('',#352,#321,#362,.T.);
#364=ORIENTED_EDGE('',*,*,#363,.T.);
#365=ORIENTED_EDGE('',*,*,#326,.T.);
#366=EDGE_LOOP('',(#350,#358,#364,#365));
#367=FACE_OUTER_BOUND('',#366,.T.);
#368=CARTESIAN_POINT('',(6.78440087473214,1.94118914049817,-0.188000000000000));
#369=DIRECTION('',(-1.00000000000000,0.00000000000000,-0.00000000000000));
#370=DIRECTION('',(-0.00000000000000,1.18108832406931E-15,1.00000000000000));
#371=AXIS2_PLACEMENT_3D('',#368,#369,#370);
#372=PLANE('',#371);
#373=ADVANCED_FACE('',(#367),#372,.T.);
#374=CARTESIAN_POINT('',(8.78440087473214,4.94118914049817,-0.282000000000000));
#375=VERTEX_POINT('',#374);
#376=CARTESIAN_POINT('',(6.78440087473214,4.94118914049817,-0.282000000000000));
#377=DIRECTION('',(1.00000000000000,0.00000000000000,0.00000000000000));
#378=VECTOR('',#377,1.00000000000000);
#379=LINE('',#376,#378);
#380=EDGE_CURVE('',#344,#375,#379,.T.);
#381=ORIENTED_EDGE('',*,*,#380,.T.);
#382=CARTESIAN_POINT('',(8.78440087473214,-1.05881085950183,-0.282000000000000));
#383=VERTEX_POINT('',#382);
#384=CARTESIAN_POINT('',(8.78440087473214,1.94118914049817,-0.282000000000000));
#385=DIRECTION('',(0.00000000000000,-1.00000000000000,0.00000000000000));
#386=VECTOR('',#385,1.00000000000000);
#387=LINE('',#384,#386);
#388=EDGE_CURVE('',#375,#383,#387,.T.);
#389=ORIENTED_EDGE('',*,*,#388,.T.);
#390=CARTESIAN_POINT('',(6.78440087473214,-1.05881085950183,-0.282000000000000));
#391=DIRECTION('',(-1.00000000000000,-0.00000000000000,-0.00000000000000));
#392=VECTOR('',#391,1.00000000000000);
#393=LINE('',#390,#392);
#394=EDGE_CURVE('',#383,#352,#393,.T.);
#395=ORIENTED_EDGE('',*,*,#394,.T.);
#396=ORIENTED_EDGE('',*,*,#357,.T.);
#397=EDGE_LOOP('',(#381,#389,#395,#396));
#398=FACE_OUTER_BOUND('',#397,.T.);
#399=CARTESIAN_POINT('',(7.78440087473214,1.94118914049817,-0.282000000000000));
#400=DIRECTION('',(0.00000000000000,0.00000000000000,-1.00000000000000));
#401=DIRECTION('',(-1.00000000000000,-0.00000000000000,-0.00000000000000));
#402=AXIS2_PLACEMENT_3D('',#399,#400,#401);
#403=PLANE('',#402);
#404=ADVANCED_FACE('',(#398),#403,.T.);
#405=CARTESIAN_POINT('',(8.78440087473214,4.94118914049817,-0.0939999999999999));
#406=VERTEX_POINT('',#405);
#407=CARTESIAN_POINT('',(8.78440087473214,4.94118914049817,-0.282000000000000));
#408=DIRECTION('',(0.00000000000000,1.18108832406931E-15,1.00000000000000));
#409=VECTOR('',#408,1.00000000000000);
#410=LINE('',#407,#409);
#411=EDGE_CURVE('',#375,#406,#410,.T.);
#412=ORIENTED_EDGE('',*,*,#411,.T.);
#413=CARTESIAN_POINT('',(8.78440087473214,-1.05881085950183,-0.0939999999999999));
#414=VERTEX_POINT('',#413);
#415=CARTESIAN_POINT('',(8.78440087473214,1.94118914049817,-0.0939999999999999));
#416=DIRECTION('',(0.00000000000000,-1.00000000000000,0.00000000000000));
#417=VECTOR('',#416,1.00000000000000);
#418=LINE('',#415,#417);
#419=EDGE_CURVE('',#406,#414,#418,.T.);
#420=ORIENTED_EDGE('',*,*,#419,.T.);
#421=CARTESIAN_POINT('',(8.78440087473214,-1.05881085950183,-0.282000000000000));
#422=DIRECTION('',(-0.00000000000000,-1.18108832406931E-15,-1.00000000000000));
#423=VECTOR('',#422,1.00000000000000);
#424=LINE('',#421,#423);
#425=EDGE_CURVE('',#414,#383,#424,.T.);
#426=ORIENTED_EDGE('',*,*,#425,.T.);
#427=ORIENTED_EDGE('',*,*,#388,.F.);
#428=EDGE_LOOP('',(#412,#420,#426,#427));
#429=FACE_OUTER_BOUND('',#428,.T.);
#430=CARTESIAN_POINT('',(8.78440087473214,1.94118914049817,-0.188000000000000));
#431=DIRECTION('',(1.00000000000000,0.00000000000000,0.00000000000000));
#432=DIRECTION('',(-0.00000000000000,-1.18108832406931E-15,-1.00000000000000));
#433=AXIS2_PLACEMENT_3D('',#430,#431,#432);
#434=PLANE('',#433);
#435=ADVANCED_FACE('',(#429),#434,.T.);
#436=CARTESIAN_POINT('',(8.08440087473214,4.94118914049817,-0.0939999999999999));
#437=VERTEX_POINT('',#436);
#438=CARTESIAN_POINT('',(8.08440087473214,4.94118914049817,-0.0939999999999999));
#439=DIRECTION('',(-1.00000000000000,-0.00000000000000,-0.00000000000000));
#440=VECTOR('',#439,1.00000000000000);
#441=LINE('',#438,#440);
#442=EDGE_CURVE('',#406,#437,#441,.T.);
#443=ORIENTED_EDGE('',*,*,#442,.T.);
#444=CARTESIAN_POINT('',(8.08440087473214,-1.05881085950183,-0.0939999999999999));
#445=VERTEX_POINT('',#444);
#446=CARTESIAN_POINT('',(8.08440087473214,1.94118914049817,-0.0939999999999999));
#447=DIRECTION('',(0.00000000000000,1.00000000000000,0.00000000000000));
#448=VECTOR('',#447,1.00000000000000);
#449=LINE('',#446,#448);
#450=EDGE_CURVE('',#445,#437,#449,.T.);
#451=ORIENTED_EDGE('',*,*,#450,.F.);
#452=CARTESIAN_POINT('',(8.08440087473214,-1.05881085950183,-0.0939999999999999));
#453=DIRECTION('',(1.00000000000000,0.00000000000000,0.00000000000000));
#454=VECTOR('',#453,1.00000000000000);
#455=LINE('',#452,#454);
#456=EDGE_CURVE('',#445,#414,#455,.T.);
#457=ORIENTED_EDGE('',*,*,#456,.T.);
#458=ORIENTED_EDGE('',*,*,#419,.F.);
#459=EDGE_LOOP('',(#443,#451,#457,#458));
#460=FACE_OUTER_BOUND('',#459,.T.);
#461=CARTESIAN_POINT('',(8.43440087473214,1.94118914049817,-0.0939999999999999));
#462=DIRECTION('',(0.00000000000000,0.00000000000000,1.00000000000000));
#463=DIRECTION('',(1.00000000000000,0.00000000000000,0.00000000000000));
#464=AXIS2_PLACEMENT_3D('',#461,#462,#463);
#465=PLANE('',#464);
#466=ADVANCED_FACE('',(#460),#465,.T.);
#467=CARTESIAN_POINT('',(8.08440087473214,4.94118914049817,0.0939999999999999));
#468=VERTEX_POINT('',#467);
#469=CARTESIAN_POINT('',(8.08440087473214,4.94118914049817,0.0939999999999999));
#470=DIRECTION('',(0.00000000000000,0.00000000000000,1.00000000000000));
#471=VECTOR('',#470,1.00000000000000);
#472=LINE('',#469,#471);
#473=EDGE_CURVE('',#437,#468,#472,.T.);
#474=ORIENTED_EDGE('',*,*,#473,.T.);
#475=CARTESIAN_POINT('',(8.08440087473214,-1.05881085950183,0.0939999999999999));
#476=VERTEX_POINT('',#475);
#477=CARTESIAN_POINT('',(8.08440087473214,1.94118914049817,0.0939999999999999));
#478=DIRECTION('',(0.00000000000000,-1.00000000000000,0.00000000000000));
#479=VECTOR('',#478,1.00000000000000);
#480=LINE('',#477,#479);
#481=EDGE_CURVE('',#468,#476,#480,.T.);
#482=ORIENTED_EDGE('',*,*,#481,.T.);
#483=CARTESIAN_POINT('',(8.08440087473214,-1.05881085950183,0.0939999999999999));
#484=DIRECTION('',(0.00000000000000,0.00000000000000,-1.00000000000000));
#485=VECTOR('',#484,1.00000000000000);
#486=LINE('',#483,#485);
#487=EDGE_CURVE('',#476,#445,#486,.T.);
#488=ORIENTED_EDGE('',*,*,#487,.T.);
#489=ORIENTED_EDGE('',*,*,#450,.T.);
#490=EDGE_LOOP('',(#474,#482,#488,#489));
#491=FACE_OUTER_BOUND('',#490,.T.);
#492=CARTESIAN_POINT('',(8.08440087473214,1.94118914049817,0.00000000000000));
#493=DIRECTION('',(1.00000000000000,-0.00000000000000,0.00000000000000));
#494=DIRECTION('',(0.00000000000000,0.00000000000000,-1.00000000000000));
#495=AXIS2_PLACEMENT_3D('',#492,#493,#494);
#496=PLANE('',#495);
#497=ADVANCED_FACE('',(#491),#496,.T.);
#498=CARTESIAN_POINT('',(8.08440087473214,4.94118914049817,0.0939999999999999));
#499=DIRECTION('',(1.00000000000000,0.00000000000000,0.00000000000000));
#500=VECTOR('',#499,1.00000000000000);
#501=LINE('',#498,#500);
#502=EDGE_CURVE('',#468,#149,#501,.T.);
#503=ORIENTED_EDGE('',*,*,#502,.T.);
#504=ORIENTED_EDGE('',*,*,#178,.F.);
#505=CARTESIAN_POINT('',(8.08440087473214,-1.05881085950183,0.0939999999999999));
#506=DIRECTION('',(-1.00000000000000,-0.00000000000000,-0.00000000000000));
#507=VECTOR('',#506,1.00000000000000);
#508=LINE('',#505,#507);
#509=EDGE_CURVE('',#167,#476,#508,.T.);
#510=ORIENTED_EDGE('',*,*,#509,.T.);
#511=ORIENTED_EDGE('',*,*,#481,.F.);
#512=EDGE_LOOP('',(#503,#504,#510,#511));
#513=FACE_OUTER_BOUND('',#512,.T.);
#514=CARTESIAN_POINT('',(8.24690087473214,1.94118914049817,0.0939999999999999));
#515=DIRECTION('',(0.00000000000000,0.00000000000000,-1.00000000000000));
#516=DIRECTION('',(-1.00000000000000,-0.00000000000000,-0.00000000000000));
#517=AXIS2_PLACEMENT_3D('',#514,#515,#516);
#518=PLANE('',#517);
#519=ADVANCED_FACE('',(#513),#518,.T.);
#520=ORIENTED_EDGE('',*,*,#156,.F.);
#521=ORIENTED_EDGE('',*,*,#502,.F.);
#522=ORIENTED_EDGE('',*,*,#473,.F.);
#523=ORIENTED_EDGE('',*,*,#442,.F.);
#524=ORIENTED_EDGE('',*,*,#411,.F.);
#525=ORIENTED_EDGE('',*,*,#380,.F.);
#526=ORIENTED_EDGE('',*,*,#349,.F.);
#527=ORIENTED_EDGE('',*,*,#318,.F.);
#528=ORIENTED_EDGE('',*,*,#287,.F.);
#529=ORIENTED_EDGE('',*,*,#256,.F.);
#530=ORIENTED_EDGE('',*,*,#225,.F.);
#531=ORIENTED_EDGE('',*,*,#194,.F.);
#532=EDGE_LOOP('',(#520,#521,#522,#523,#524,#525,#526,#527,#528,#529,#530,#531));
#533=FACE_OUTER_BOUND('',#532,.T.);
#534=ORIENTED_EDGE('',*,*,#32,.F.);
#535=ORIENTED_EDGE('',*,*,#130,.F.);
#536=ORIENTED_EDGE('',*,*,#101,.F.);
#537=ORIENTED_EDGE('',*,*,#70,.F.);
#538=EDGE_LOOP('',(#534,#535,#536,#537));
#539=FACE_BOUND('',#538,.T.);
#540=CARTESIAN_POINT('',(8.18590649973214,4.94118914049817,0.0939999999999999));
#541=DIRECTION('',(0.00000000000000,1.00000000000000,0.00000000000000));
#542=DIRECTION('',(-1.00000000000000,0.00000000000000,0.00000000000000));
#543=AXIS2_PLACEMENT_3D('',#540,#541,#542);
#544=PLANE('',#543);
#545=ADVANCED_FACE('',(#533,#539),#544,.T.);
#546=ORIENTED_EDGE('',*,*,#487,.F.);
#547=ORIENTED_EDGE('',*,*,#509,.F.);
#548=ORIENTED_EDGE('',*,*,#172,.F.);
#549=ORIENTED_EDGE('',*,*,#208,.F.);
#550=ORIENTED_EDGE('',*,*,#239,.F.);
#551=ORIENTED_EDGE('',*,*,#270,.F.);
#552=ORIENTED_EDGE('',*,*,#301,.F.);
#553=ORIENTED_EDGE('',*,*,#332,.F.);
#554=ORIENTED_EDGE('',*,*,#363,.F.);
#555=ORIENTED_EDGE('',*,*,#394,.F.);
#556=ORIENTED_EDGE('',*,*,#425,.F.);
#557=ORIENTED_EDGE('',*,*,#456,.F.);
#558=EDGE_LOOP('',(#546,#547,#548,#549,#550,#551,#552,#553,#554,#555,#556,#557));
#559=FACE_OUTER_BOUND('',#558,.T.);
#560=ORIENTED_EDGE('',*,*,#115,.F.);
#561=ORIENTED_EDGE('',*,*,#137,.F.);
#562=ORIENTED_EDGE('',*,*,#48,.F.);
#563=ORIENTED_EDGE('',*,*,#84,.F.);
#564=EDGE_LOOP('',(#560,#561,#562,#563));
#565=FACE_BOUND('',#564,.T.);
#566=CARTESIAN_POINT('',(8.18590649973214,-1.05881085950183,0.0939999999999999));
#567=DIRECTION('',(0.00000000000000,1.00000000000000,0.00000000000000));
#568=DIRECTION('',(-1.00000000000000,0.00000000000000,0.00000000000000));
#569=AXIS2_PLACEMENT_3D('',#566,#567,#568);
#570=PLANE('',#569);
#571=ADVANCED_FACE('',(#559,#565),#570,.F.);
#572=CLOSED_SHELL('',(#63,#94,#125,#147,#187,#218,#249,#280,#311,#342,#373,#404,#435,#466,#497,#519,#545,#571));
#573=MANIFOLD_SOLID_BREP('',#572);
#574=COLOUR_RGB('',1.00000000000000,0.00000000000000,0.00000000000000);
#575=FILL_AREA_STYLE_COLOUR('',#574);
#576=FILL_AREA_STYLE('',(#575));
#577=SURFACE_STYLE_FILL_AREA(#576);
#578=SURFACE_SIDE_STYLE('',(#577));
#579=SURFACE_STYLE_USAGE(.BOTH.,#578);
#580=PRESENTATION_STYLE_ASSIGNMENT((#579));
#581=STYLED_ITEM('',(#580),#573);
#582=ADVANCED_BREP_SHAPE_REPRESENTATION('',(#573,#23),#18);
#583=PRODUCT('', '', ' ',(#2));
#584=PRODUCT_DEFINITION_FORMATION_WITH_SPECIFIED_SOURCE (' ', ' ', #583, .NOT_KNOWN.) ;
#585=PRODUCT_CATEGORY('part','') ;
#586=PRODUCT_RELATED_PRODUCT_CATEGORY('detail', ' ', (#583)) ;
#587=PRODUCT_CATEGORY_RELATIONSHIP(' ', ' ', #585, #586);
#588=PRODUCT_DEFINITION('', '', #584, #1);
#589=PRODUCT_DEFINITION_SHAPE('NONE', 'NONE', #588);
#590=SHAPE_DEFINITION_REPRESENTATION(#589, #582);
#591=PRESENTATION_LAYER_ASSIGNMENT('1','Unnamed [1]',(#573));
#592=MECHANICAL_DESIGN_GEOMETRIC_PRESENTATION_REPRESENTATION('',(#581), #18);
ENDSEC;
END-ISO-10303-21;
