ISO-10303-21;
HEADER;
FILE_DESCRIPTION((''),'2;1');
FILE_NAME('C:/Program Files/Kubotek/KeyCreatorPro.2021.SP0/STEP/SG1080.STP', '2021-02-05T21:21:34',(''), (''), 'KCM Version 2.0.6974.6974', 'KeyCreator Pro', '');
FILE_SCHEMA(('AUTOMOTIVE_DESIGN'));
ENDSEC;
DATA;
#1=PRODUCT_DEFINITION_CONTEXT('',#4,'design');
#2=PRODUCT_CONTEXT('',#4,'mechanical');
#3=APPLICATION_PROTOCOL_DEFINITION('International Standard','automotive_design',2001,#4);
#4=APPLICATION_CONTEXT('automotive design');
#10=DIMENSIONAL_EXPONENTS(1.0,0.0,0.0,0.0,0.0,0.0,0.0);
#11=DIMENSIONAL_EXPONENTS(0.0,0.0,0.0,0.0,0.0,0.0,0.0);
#12=(NAMED_UNIT(#10)LENGTH_UNIT()SI_UNIT(.MILLI.,.METRE.));
#13=(NAMED_UNIT(#11)PLANE_ANGLE_UNIT()SI_UNIT($,.RADIAN.));
#14=(NAMED_UNIT(#11)SOLID_ANGLE_UNIT()SI_UNIT($,.STERADIAN.));
#15=LENGTH_MEASURE_WITH_UNIT(LENGTH_MEASURE(25.4),#12);
#16= (CONVERSION_BASED_UNIT('INCH',#15)LENGTH_UNIT()NAMED_UNIT(#10));
#17=UNCERTAINTY_MEASURE_WITH_UNIT(LENGTH_MEASURE(1.0E-006),#16,'','');
#18=(GEOMETRIC_REPRESENTATION_CONTEXT(3)GLOBAL_UNCERTAINTY_ASSIGNED_CONTEXT((#17))GLOBAL_UNIT_ASSIGNED_CONTEXT((#16,#13,#14))REPRESENTATION_CONTEXT('NONE','WORKSPACE'));
#20=CARTESIAN_POINT('',(0.00000000000000,0.00000000000000,0.00000000000000));
#21=DIRECTION('',(0.00000000000000,0.00000000000000,1.00000000000000));
#22=DIRECTION('',(1.00000000000000,0.00000000000000,0.00000000000000));
#23=AXIS2_PLACEMENT_3D('',#20,#21,#22);
#24=CARTESIAN_POINT('',(4.79806515398912,10.6356158725000,-0.204905330907380));
#25=VERTEX_POINT('',#24);
#26=CARTESIAN_POINT('',(4.86006515398913,10.6356158725000,-0.205118957114776));
#27=VERTEX_POINT('',#26);
#28=CARTESIAN_POINT('',(4.86006515398913,10.6356158725000,-0.205118957114776));
#29=DIRECTION('',(1.00000000000000,0.00000000000000,0.00000000000000));
#30=VECTOR('',#29,1.00000000000000);
#31=LINE('',#28,#30);
#32=EDGE_CURVE('',#25,#27,#31,.T.);
#33=ORIENTED_EDGE('',*,*,#32,.T.);
#34=CARTESIAN_POINT('',(4.86006515398913,4.63561587250004,-0.205118957114776));
#35=VERTEX_POINT('',#34);
#36=CARTESIAN_POINT('',(4.86006515398913,4.63561587250004,-0.205118957114776));
#37=DIRECTION('',(0.00000000000000,1.00000000000000,0.00000000000000));
#38=VECTOR('',#37,1.00000000000000);
#39=LINE('',#36,#38);
#40=EDGE_CURVE('',#35,#27,#39,.T.);
#41=ORIENTED_EDGE('',*,*,#40,.F.);
#42=CARTESIAN_POINT('',(4.79806515398912,4.63561587250004,-0.204905330907380));
#43=VERTEX_POINT('',#42);
#44=CARTESIAN_POINT('',(4.86006515398913,4.63561587250004,-0.205118957114776));
#45=DIRECTION('',(-1.00000000000000,0.00000000000000,0.00000000000000));
#46=VECTOR('',#45,1.00000000000000);
#47=LINE('',#44,#46);
#48=EDGE_CURVE('',#35,#43,#47,.T.);
#49=ORIENTED_EDGE('',*,*,#48,.T.);
#50=CARTESIAN_POINT('',(4.79806515398912,4.63561587250004,-0.204905330907380));
#51=DIRECTION('',(0.00000000000000,1.00000000000000,0.00000000000000));
#52=VECTOR('',#51,1.00000000000000);
#53=LINE('',#50,#52);
#54=EDGE_CURVE('',#43,#25,#53,.T.);
#55=ORIENTED_EDGE('',*,*,#54,.T.);
#56=EDGE_LOOP('',(#33,#41,#49,#55));
#57=FACE_OUTER_BOUND('',#56,.T.);
#58=CARTESIAN_POINT('',(4.82906515398913,4.63561587250004,-0.205118957114776));
#59=DIRECTION('',(0.00000000000000,0.00000000000000,-1.00000000000000));
#60=DIRECTION('',(-1.00000000000000,0.00000000000000,0.00000000000000));
#61=AXIS2_PLACEMENT_3D('',#58,#59,#60);
#62=PLANE('',#61);
#63=ADVANCED_FACE('',(#57),#62,.T.);
#64=CARTESIAN_POINT('',(4.86006515398913,10.6356158725000,-0.0451189571147754));
#65=VERTEX_POINT('',#64);
#66=CARTESIAN_POINT('',(4.86006515398913,10.6356158725000,-0.0451189571147754));
#67=DIRECTION('',(0.00000000000000,0.00000000000000,1.00000000000000));
#68=VECTOR('',#67,1.00000000000000);
#69=LINE('',#66,#68);
#70=EDGE_CURVE('',#27,#65,#69,.T.);
#71=ORIENTED_EDGE('',*,*,#70,.T.);
#72=CARTESIAN_POINT('',(4.86006515398913,4.63561587250004,-0.0451189571147754));
#73=VERTEX_POINT('',#72);
#74=CARTESIAN_POINT('',(4.86006515398913,4.63561587250004,-0.0451189571147754));
#75=DIRECTION('',(0.00000000000000,1.00000000000000,0.00000000000000));
#76=VECTOR('',#75,1.00000000000000);
#77=LINE('',#74,#76);
#78=EDGE_CURVE('',#73,#65,#77,.T.);
#79=ORIENTED_EDGE('',*,*,#78,.F.);
#80=CARTESIAN_POINT('',(4.86006515398913,4.63561587250004,-0.0451189571147754));
#81=DIRECTION('',(0.00000000000000,0.00000000000000,-1.00000000000000));
#82=VECTOR('',#81,1.00000000000000);
#83=LINE('',#80,#82);
#84=EDGE_CURVE('',#73,#35,#83,.T.);
#85=ORIENTED_EDGE('',*,*,#84,.T.);
#86=ORIENTED_EDGE('',*,*,#40,.T.);
#87=EDGE_LOOP('',(#71,#79,#85,#86));
#88=FACE_OUTER_BOUND('',#87,.T.);
#89=CARTESIAN_POINT('',(4.86006515398913,4.63561587250004,-0.125118957114775));
#90=DIRECTION('',(1.00000000000000,-0.00000000000000,0.00000000000000));
#91=DIRECTION('',(0.00000000000000,0.00000000000000,-1.00000000000000));
#92=AXIS2_PLACEMENT_3D('',#89,#90,#91);
#93=PLANE('',#92);
#94=ADVANCED_FACE('',(#88),#93,.T.);
#95=CARTESIAN_POINT('',(4.92166164200533,10.6356158725000,0.0450050974239593));
#96=VERTEX_POINT('',#95);
#97=CARTESIAN_POINT('',(4.92166164200533,10.6356158725000,0.0450050974239593));
#98=DIRECTION('',(0.564683915591990,0.00000000000000,0.825307261249832));
#99=VECTOR('',#98,1.00000000000000);
#100=LINE('',#97,#99);
#101=EDGE_CURVE('',#65,#96,#100,.T.);
#102=ORIENTED_EDGE('',*,*,#101,.T.);
#103=CARTESIAN_POINT('',(4.92166164200533,4.63561587250004,0.0450050974239593));
#104=VERTEX_POINT('',#103);
#105=CARTESIAN_POINT('',(4.92166164200533,4.63561587250004,0.0450050974239593));
#106=DIRECTION('',(0.00000000000000,1.00000000000000,0.00000000000000));
#107=VECTOR('',#106,1.00000000000000);
#108=LINE('',#105,#107);
#109=EDGE_CURVE('',#104,#96,#108,.T.);
#110=ORIENTED_EDGE('',*,*,#109,.F.);
#111=CARTESIAN_POINT('',(4.92166164200533,4.63561587250004,0.0450050974239593));
#112=DIRECTION('',(-0.564683915591990,0.00000000000000,-0.825307261249832));
#113=VECTOR('',#112,1.00000000000000);
#114=LINE('',#111,#113);
#115=EDGE_CURVE('',#104,#73,#114,.T.);
#116=ORIENTED_EDGE('',*,*,#115,.T.);
#117=ORIENTED_EDGE('',*,*,#78,.T.);
#118=EDGE_LOOP('',(#102,#110,#116,#117));
#119=FACE_OUTER_BOUND('',#118,.T.);
#120=CARTESIAN_POINT('',(4.89084046469796,4.63561587250004,-4.12386406493728E-05));
#121=DIRECTION('',(0.825307261249832,0.00000000000000,-0.564683915591990));
#122=DIRECTION('',(-0.564683915591990,0.00000000000000,-0.825307261249832));
#123=AXIS2_PLACEMENT_3D('',#120,#121,#122);
#124=PLANE('',#123);
#125=ADVANCED_FACE('',(#119),#124,.T.);
#126=CARTESIAN_POINT('',(4.86006515398913,10.6356158725000,0.0168810428852249));
#127=VERTEX_POINT('',#126);
#128=CARTESIAN_POINT('',(4.92166164200533,10.6356158725000,0.0450050974239593));
#129=DIRECTION('',(-0.907959384500447,0.00000000000000,-0.419058177461757));
#130=VECTOR('',#129,1.00000000000000);
#131=LINE('',#128,#130);
#132=EDGE_CURVE('',#96,#127,#131,.T.);
#133=ORIENTED_EDGE('',*,*,#132,.T.);
#134=CARTESIAN_POINT('',(4.86006515398913,4.63561587250004,0.0168810428852249));
#135=VERTEX_POINT('',#134);
#136=CARTESIAN_POINT('',(4.86006515398913,4.63561587250004,0.0168810428852249));
#137=DIRECTION('',(0.00000000000000,1.00000000000000,0.00000000000000));
#138=VECTOR('',#137,1.00000000000000);
#139=LINE('',#136,#138);
#140=EDGE_CURVE('',#135,#127,#139,.T.);
#141=ORIENTED_EDGE('',*,*,#140,.F.);
#142=CARTESIAN_POINT('',(4.92166164200533,4.63561587250004,0.0450050974239593));
#143=DIRECTION('',(-0.907959384500447,0.00000000000000,-0.419058177461757));
#144=VECTOR('',#143,1.00000000000000);
#145=LINE('',#142,#144);
#146=EDGE_CURVE('',#104,#135,#145,.T.);
#147=ORIENTED_EDGE('',*,*,#146,.F.);
#148=ORIENTED_EDGE('',*,*,#109,.T.);
#149=EDGE_LOOP('',(#133,#141,#147,#148));
#150=FACE_OUTER_BOUND('',#149,.T.);
#151=CARTESIAN_POINT('',(4.89092144022787,4.63561587250004,0.0308173119882072));
#152=DIRECTION('',(-0.419058177461757,0.00000000000000,0.907959384500447));
#153=DIRECTION('',(0.907959384500447,-0.00000000000000,0.419058177461757));
#154=AXIS2_PLACEMENT_3D('',#151,#152,#153);
#155=PLANE('',#154);
#156=ADVANCED_FACE('',(#150),#155,.T.);
#157=CARTESIAN_POINT('',(4.86006515398913,10.6356158725000,0.794881042885224));
#158=VERTEX_POINT('',#157);
#159=CARTESIAN_POINT('',(4.86006515398913,10.6356158725000,0.794881042885224));
#160=DIRECTION('',(0.00000000000000,0.00000000000000,1.00000000000000));
#161=VECTOR('',#160,1.00000000000000);
#162=LINE('',#159,#161);
#163=EDGE_CURVE('',#127,#158,#162,.T.);
#164=ORIENTED_EDGE('',*,*,#163,.T.);
#165=CARTESIAN_POINT('',(4.86006515398913,4.63561587250004,0.794881042885224));
#166=VERTEX_POINT('',#165);
#167=CARTESIAN_POINT('',(4.86006515398913,4.63561587250004,0.794881042885224));
#168=DIRECTION('',(0.00000000000000,1.00000000000000,0.00000000000000));
#169=VECTOR('',#168,1.00000000000000);
#170=LINE('',#167,#169);
#171=EDGE_CURVE('',#166,#158,#170,.T.);
#172=ORIENTED_EDGE('',*,*,#171,.F.);
#173=CARTESIAN_POINT('',(4.86006515398913,4.63561587250004,0.794881042885224));
#174=DIRECTION('',(0.00000000000000,0.00000000000000,-1.00000000000000));
#175=VECTOR('',#174,1.00000000000000);
#176=LINE('',#173,#175);
#177=EDGE_CURVE('',#166,#135,#176,.T.);
#178=ORIENTED_EDGE('',*,*,#177,.T.);
#179=ORIENTED_EDGE('',*,*,#140,.T.);
#180=EDGE_LOOP('',(#164,#172,#178,#179));
#181=FACE_OUTER_BOUND('',#180,.T.);
#182=CARTESIAN_POINT('',(4.86006515398913,4.63561587250004,0.405881042885225));
#183=DIRECTION('',(1.00000000000000,-0.00000000000000,0.00000000000000));
#184=DIRECTION('',(0.00000000000000,0.00000000000000,-1.00000000000000));
#185=AXIS2_PLACEMENT_3D('',#182,#183,#184);
#186=PLANE('',#185);
#187=ADVANCED_FACE('',(#181),#186,.T.);
#188=CARTESIAN_POINT('',(5.41006515398912,10.6356158725000,0.794881042885224));
#189=VERTEX_POINT('',#188);
#190=CARTESIAN_POINT('',(5.41006515398912,10.6356158725000,0.794881042885224));
#191=DIRECTION('',(1.00000000000000,0.00000000000000,0.00000000000000));
#192=VECTOR('',#191,1.00000000000000);
#193=LINE('',#190,#192);
#194=EDGE_CURVE('',#158,#189,#193,.T.);
#195=ORIENTED_EDGE('',*,*,#194,.T.);
#196=CARTESIAN_POINT('',(5.41006515398912,4.63561587250004,0.794881042885224));
#197=VERTEX_POINT('',#196);
#198=CARTESIAN_POINT('',(5.41006515398912,4.63561587250004,0.794881042885224));
#199=DIRECTION('',(0.00000000000000,1.00000000000000,0.00000000000000));
#200=VECTOR('',#199,1.00000000000000);
#201=LINE('',#198,#200);
#202=EDGE_CURVE('',#197,#189,#201,.T.);
#203=ORIENTED_EDGE('',*,*,#202,.F.);
#204=CARTESIAN_POINT('',(5.41006515398912,4.63561587250004,0.794881042885224));
#205=DIRECTION('',(-1.00000000000000,0.00000000000000,0.00000000000000));
#206=VECTOR('',#205,1.00000000000000);
#207=LINE('',#204,#206);
#208=EDGE_CURVE('',#197,#166,#207,.T.);
#209=ORIENTED_EDGE('',*,*,#208,.T.);
#210=ORIENTED_EDGE('',*,*,#171,.T.);
#211=EDGE_LOOP('',(#195,#203,#209,#210));
#212=FACE_OUTER_BOUND('',#211,.T.);
#213=CARTESIAN_POINT('',(5.13506515398912,4.63561587250004,0.794881042885224));
#214=DIRECTION('',(0.00000000000000,0.00000000000000,-1.00000000000000));
#215=DIRECTION('',(-1.00000000000000,0.00000000000000,0.00000000000000));
#216=AXIS2_PLACEMENT_3D('',#213,#214,#215);
#217=PLANE('',#216);
#218=ADVANCED_FACE('',(#212),#217,.T.);
#219=CARTESIAN_POINT('',(5.41006515398912,10.6356158725000,0.0168810428852249));
#220=VERTEX_POINT('',#219);
#221=CARTESIAN_POINT('',(5.41006515398912,10.6356158725000,0.0168810428852249));
#222=DIRECTION('',(-0.00000000000000,-0.00000000000000,-1.00000000000000));
#223=VECTOR('',#222,1.00000000000000);
#224=LINE('',#221,#223);
#225=EDGE_CURVE('',#189,#220,#224,.T.);
#226=ORIENTED_EDGE('',*,*,#225,.T.);
#227=CARTESIAN_POINT('',(5.41006515398912,4.63561587250004,0.0168810428852249));
#228=VERTEX_POINT('',#227);
#229=CARTESIAN_POINT('',(5.41006515398912,4.63561587250004,0.0168810428852249));
#230=DIRECTION('',(0.00000000000000,1.00000000000000,0.00000000000000));
#231=VECTOR('',#230,1.00000000000000);
#232=LINE('',#229,#231);
#233=EDGE_CURVE('',#228,#220,#232,.T.);
#234=ORIENTED_EDGE('',*,*,#233,.F.);
#235=CARTESIAN_POINT('',(5.41006515398912,4.63561587250004,0.0168810428852249));
#236=DIRECTION('',(0.00000000000000,0.00000000000000,1.00000000000000));
#237=VECTOR('',#236,1.00000000000000);
#238=LINE('',#235,#237);
#239=EDGE_CURVE('',#228,#197,#238,.T.);
#240=ORIENTED_EDGE('',*,*,#239,.T.);
#241=ORIENTED_EDGE('',*,*,#202,.T.);
#242=EDGE_LOOP('',(#226,#234,#240,#241));
#243=FACE_OUTER_BOUND('',#242,.T.);
#244=CARTESIAN_POINT('',(5.41006515398912,4.63561587250004,0.405881042885225));
#245=DIRECTION('',(-1.00000000000000,0.00000000000000,0.00000000000000));
#246=DIRECTION('',(0.00000000000000,0.00000000000000,1.00000000000000));
#247=AXIS2_PLACEMENT_3D('',#244,#245,#246);
#248=PLANE('',#247);
#249=ADVANCED_FACE('',(#243),#248,.T.);
#250=CARTESIAN_POINT('',(5.34802572286389,10.6356158725000,0.0450050974239593));
#251=VERTEX_POINT('',#250);
#252=CARTESIAN_POINT('',(5.34802572286389,10.6356158725000,0.0450050974239593));
#253=DIRECTION('',(-0.907959384500447,0.00000000000000,0.419058177461757));
#254=VECTOR('',#253,1.00000000000000);
#255=LINE('',#252,#254);
#256=EDGE_CURVE('',#220,#251,#255,.T.);
#257=ORIENTED_EDGE('',*,*,#256,.T.);
#258=CARTESIAN_POINT('',(5.34802572286389,4.63561587250004,0.0450050974239593));
#259=VERTEX_POINT('',#258);
#260=CARTESIAN_POINT('',(5.34802572286389,4.63561587250004,0.0450050974239593));
#261=DIRECTION('',(0.00000000000000,1.00000000000000,0.00000000000000));
#262=VECTOR('',#261,1.00000000000000);
#263=LINE('',#260,#262);
#264=EDGE_CURVE('',#259,#251,#263,.T.);
#265=ORIENTED_EDGE('',*,*,#264,.F.);
#266=CARTESIAN_POINT('',(5.34802572286389,4.63561587250004,0.0450050974239593));
#267=DIRECTION('',(0.907959384500447,0.00000000000000,-0.419058177461757));
#268=VECTOR('',#267,1.00000000000000);
#269=LINE('',#266,#268);
#270=EDGE_CURVE('',#259,#228,#269,.T.);
#271=ORIENTED_EDGE('',*,*,#270,.T.);
#272=ORIENTED_EDGE('',*,*,#233,.T.);
#273=EDGE_LOOP('',(#257,#265,#271,#272));
#274=FACE_OUTER_BOUND('',#273,.T.);
#275=CARTESIAN_POINT('',(5.37894850363020,4.63561587250004,0.0307330447625859));
#276=DIRECTION('',(0.419058177461757,-0.00000000000000,0.907959384500447));
#277=DIRECTION('',(0.907959384500447,0.00000000000000,-0.419058177461757));
#278=AXIS2_PLACEMENT_3D('',#275,#276,#277);
#279=PLANE('',#278);
#280=ADVANCED_FACE('',(#274),#279,.T.);
#281=CARTESIAN_POINT('',(5.41006515398912,10.6356158725000,-0.0429612601416762));
#282=VERTEX_POINT('',#281);
#283=CARTESIAN_POINT('',(5.41006515398912,10.6356158725000,-0.0429612601416762));
#284=DIRECTION('',(0.576345418767682,0.00000000000000,-0.817206190790002));
#285=VECTOR('',#284,1.00000000000000);
#286=LINE('',#283,#285);
#287=EDGE_CURVE('',#251,#282,#286,.T.);
#288=ORIENTED_EDGE('',*,*,#287,.T.);
#289=CARTESIAN_POINT('',(5.41006515398912,4.63561587250004,-0.0429612601416762));
#290=VERTEX_POINT('',#289);
#291=CARTESIAN_POINT('',(5.41006515398912,4.63561587250004,-0.0429612601416762));
#292=DIRECTION('',(0.00000000000000,1.00000000000000,0.00000000000000));
#293=VECTOR('',#292,1.00000000000000);
#294=LINE('',#291,#293);
#295=EDGE_CURVE('',#290,#282,#294,.T.);
#296=ORIENTED_EDGE('',*,*,#295,.F.);
#297=CARTESIAN_POINT('',(5.41006515398912,4.63561587250004,-0.0429612601416762));
#298=DIRECTION('',(-0.576345418767682,0.00000000000000,0.817206190790002));
#299=VECTOR('',#298,1.00000000000000);
#300=LINE('',#297,#299);
#301=EDGE_CURVE('',#290,#259,#300,.T.);
#302=ORIENTED_EDGE('',*,*,#301,.T.);
#303=ORIENTED_EDGE('',*,*,#264,.T.);
#304=EDGE_LOOP('',(#288,#296,#302,#303));
#305=FACE_OUTER_BOUND('',#304,.T.);
#306=CARTESIAN_POINT('',(5.37904543842651,4.63561587250004,0.00102191864114155));
#307=DIRECTION('',(-0.817206190790002,0.00000000000000,-0.576345418767682));
#308=DIRECTION('',(-0.576345418767682,0.00000000000000,0.817206190790002));
#309=AXIS2_PLACEMENT_3D('',#306,#307,#308);
#310=PLANE('',#309);
#311=ADVANCED_FACE('',(#305),#310,.T.);
#312=CARTESIAN_POINT('',(5.41006515398912,10.6356158725000,-0.768118957114774));
#313=VERTEX_POINT('',#312);
#314=CARTESIAN_POINT('',(5.41006515398912,10.6356158725000,-0.768118957114774));
#315=DIRECTION('',(-0.00000000000000,-0.00000000000000,-1.00000000000000));
#316=VECTOR('',#315,1.00000000000000);
#317=LINE('',#314,#316);
#318=EDGE_CURVE('',#282,#313,#317,.T.);
#319=ORIENTED_EDGE('',*,*,#318,.T.);
#320=CARTESIAN_POINT('',(5.41006515398912,4.63561587250004,-0.768118957114774));
#321=VERTEX_POINT('',#320);
#322=CARTESIAN_POINT('',(5.41006515398912,4.63561587250004,-0.768118957114774));
#323=DIRECTION('',(0.00000000000000,1.00000000000000,0.00000000000000));
#324=VECTOR('',#323,1.00000000000000);
#325=LINE('',#322,#324);
#326=EDGE_CURVE('',#321,#313,#325,.T.);
#327=ORIENTED_EDGE('',*,*,#326,.F.);
#328=CARTESIAN_POINT('',(5.41006515398912,4.63561587250004,-0.768118957114774));
#329=DIRECTION('',(0.00000000000000,0.00000000000000,1.00000000000000));
#330=VECTOR('',#329,1.00000000000000);
#331=LINE('',#328,#330);
#332=EDGE_CURVE('',#321,#290,#331,.T.);
#333=ORIENTED_EDGE('',*,*,#332,.T.);
#334=ORIENTED_EDGE('',*,*,#295,.T.);
#335=EDGE_LOOP('',(#319,#327,#333,#334));
#336=FACE_OUTER_BOUND('',#335,.T.);
#337=CARTESIAN_POINT('',(5.41006515398912,4.63561587250004,-0.405540108628225));
#338=DIRECTION('',(-1.00000000000000,0.00000000000000,0.00000000000000));
#339=DIRECTION('',(0.00000000000000,0.00000000000000,1.00000000000000));
#340=AXIS2_PLACEMENT_3D('',#337,#338,#339);
#341=PLANE('',#340);
#342=ADVANCED_FACE('',(#336),#341,.T.);
#343=CARTESIAN_POINT('',(5.47206515398913,10.6356158725000,-0.768118957114774));
#344=VERTEX_POINT('',#343);
#345=CARTESIAN_POINT('',(5.41006515398912,10.6356158725000,-0.768118957114774));
#346=DIRECTION('',(1.00000000000000,0.00000000000000,0.00000000000000));
#347=VECTOR('',#346,1.00000000000000);
#348=LINE('',#345,#347);
#349=EDGE_CURVE('',#313,#344,#348,.T.);
#350=ORIENTED_EDGE('',*,*,#349,.T.);
#351=CARTESIAN_POINT('',(5.47206515398913,4.63561587250004,-0.768118957114774));
#352=VERTEX_POINT('',#351);
#353=CARTESIAN_POINT('',(5.47206515398913,4.63561587250004,-0.768118957114774));
#354=DIRECTION('',(0.00000000000000,1.00000000000000,0.00000000000000));
#355=VECTOR('',#354,1.00000000000000);
#356=LINE('',#353,#355);
#357=EDGE_CURVE('',#352,#344,#356,.T.);
#358=ORIENTED_EDGE('',*,*,#357,.F.);
#359=CARTESIAN_POINT('',(5.41006515398912,4.63561587250004,-0.768118957114774));
#360=DIRECTION('',(1.00000000000000,0.00000000000000,0.00000000000000));
#361=VECTOR('',#360,1.00000000000000);
#362=LINE('',#359,#361);
#363=EDGE_CURVE('',#321,#352,#362,.T.);
#364=ORIENTED_EDGE('',*,*,#363,.F.);
#365=ORIENTED_EDGE('',*,*,#326,.T.);
#366=EDGE_LOOP('',(#350,#358,#364,#365));
#367=FACE_OUTER_BOUND('',#366,.T.);
#368=CARTESIAN_POINT('',(5.44106515398913,4.63561587250004,-0.768118957114774));
#369=DIRECTION('',(0.00000000000000,0.00000000000000,-1.00000000000000));
#370=DIRECTION('',(-1.00000000000000,-0.00000000000000,-0.00000000000000));
#371=AXIS2_PLACEMENT_3D('',#368,#369,#370);
#372=PLANE('',#371);
#373=ADVANCED_FACE('',(#367),#372,.T.);
#374=CARTESIAN_POINT('',(5.47206515398913,10.6356158725000,0.836881042885226));
#375=VERTEX_POINT('',#374);
#376=CARTESIAN_POINT('',(5.47206515398913,10.6356158725000,-0.768118957114774));
#377=DIRECTION('',(0.00000000000000,0.00000000000000,1.00000000000000));
#378=VECTOR('',#377,1.00000000000000);
#379=LINE('',#376,#378);
#380=EDGE_CURVE('',#344,#375,#379,.T.);
#381=ORIENTED_EDGE('',*,*,#380,.T.);
#382=CARTESIAN_POINT('',(5.47206515398913,4.63561587250004,0.836881042885226));
#383=VERTEX_POINT('',#382);
#384=CARTESIAN_POINT('',(5.47206515398913,4.63561587250004,0.836881042885226));
#385=DIRECTION('',(0.00000000000000,1.00000000000000,0.00000000000000));
#386=VECTOR('',#385,1.00000000000000);
#387=LINE('',#384,#386);
#388=EDGE_CURVE('',#383,#375,#387,.T.);
#389=ORIENTED_EDGE('',*,*,#388,.F.);
#390=CARTESIAN_POINT('',(5.47206515398913,4.63561587250004,-0.768118957114774));
#391=DIRECTION('',(0.00000000000000,0.00000000000000,1.00000000000000));
#392=VECTOR('',#391,1.00000000000000);
#393=LINE('',#390,#392);
#394=EDGE_CURVE('',#352,#383,#393,.T.);
#395=ORIENTED_EDGE('',*,*,#394,.F.);
#396=ORIENTED_EDGE('',*,*,#357,.T.);
#397=EDGE_LOOP('',(#381,#389,#395,#396));
#398=FACE_OUTER_BOUND('',#397,.T.);
#399=CARTESIAN_POINT('',(5.47206515398913,4.63561587250004,0.0343810428852258));
#400=DIRECTION('',(1.00000000000000,0.00000000000000,0.00000000000000));
#401=DIRECTION('',(-0.00000000000000,-0.00000000000000,-1.00000000000000));
#402=AXIS2_PLACEMENT_3D('',#399,#400,#401);
#403=PLANE('',#402);
#404=ADVANCED_FACE('',(#398),#403,.T.);
#405=CARTESIAN_POINT('',(5.45206515398912,10.6356158725000,0.856881042885226));
#406=VERTEX_POINT('',#405);
#407=CARTESIAN_POINT('',(5.45206515398912,10.6356158725000,0.836881042885226));
#408=DIRECTION('',(0.00000000000000,-1.00000000000000,6.12323399573677E-17));
#409=DIRECTION('',(1.00000000000000,0.00000000000000,0.00000000000000));
#410=AXIS2_PLACEMENT_3D('',#407,#408,#409);
#411=CIRCLE('',#410,0.0200000000000000);
#412=EDGE_CURVE('',#375,#406,#411,.T.);
#413=ORIENTED_EDGE('',*,*,#412,.T.);
#414=CARTESIAN_POINT('',(5.45206515398912,4.63561587250004,0.856881042885226));
#415=VERTEX_POINT('',#414);
#416=CARTESIAN_POINT('',(5.45206515398912,4.63561587250004,0.856881042885226));
#417=DIRECTION('',(0.00000000000000,1.00000000000000,0.00000000000000));
#418=VECTOR('',#417,1.00000000000000);
#419=LINE('',#416,#418);
#420=EDGE_CURVE('',#415,#406,#419,.T.);
#421=ORIENTED_EDGE('',*,*,#420,.F.);
#422=CARTESIAN_POINT('',(5.45206515398912,4.63561587250004,0.836881042885226));
#423=DIRECTION('',(0.00000000000000,-1.00000000000000,6.12323399573677E-17));
#424=DIRECTION('',(1.00000000000000,0.00000000000000,0.00000000000000));
#425=AXIS2_PLACEMENT_3D('',#422,#423,#424);
#426=CIRCLE('',#425,0.0200000000000000);
#427=EDGE_CURVE('',#383,#415,#426,.T.);
#428=ORIENTED_EDGE('',*,*,#427,.F.);
#429=ORIENTED_EDGE('',*,*,#388,.T.);
#430=EDGE_LOOP('',(#413,#421,#428,#429));
#431=FACE_OUTER_BOUND('',#430,.T.);
#432=CARTESIAN_POINT('',(5.45206515398912,4.63561587250004,0.836881042885226));
#433=DIRECTION('',(0.00000000000000,1.00000000000000,0.00000000000000));
#434=DIRECTION('',(-0.707106781186536,0.00000000000000,-0.707106781186559));
#435=AXIS2_PLACEMENT_3D('',#432,#433,#434);
#436=CYLINDRICAL_SURFACE('',#435,0.0200000000000000);
#437=ADVANCED_FACE('',(#431),#436,.T.);
#438=CARTESIAN_POINT('',(4.81806515398912,10.6356158725000,0.856881042885226));
#439=VERTEX_POINT('',#438);
#440=CARTESIAN_POINT('',(5.45206515398912,10.6356158725000,0.856881042885226));
#441=DIRECTION('',(-1.00000000000000,0.00000000000000,0.00000000000000));
#442=VECTOR('',#441,1.00000000000000);
#443=LINE('',#440,#442);
#444=EDGE_CURVE('',#406,#439,#443,.T.);
#445=ORIENTED_EDGE('',*,*,#444,.T.);
#446=CARTESIAN_POINT('',(4.81806515398912,4.63561587250004,0.856881042885226));
#447=VERTEX_POINT('',#446);
#448=CARTESIAN_POINT('',(4.81806515398912,4.63561587250004,0.856881042885226));
#449=DIRECTION('',(0.00000000000000,1.00000000000000,0.00000000000000));
#450=VECTOR('',#449,1.00000000000000);
#451=LINE('',#448,#450);
#452=EDGE_CURVE('',#447,#439,#451,.T.);
#453=ORIENTED_EDGE('',*,*,#452,.F.);
#454=CARTESIAN_POINT('',(5.45206515398912,4.63561587250004,0.856881042885226));
#455=DIRECTION('',(-1.00000000000000,0.00000000000000,0.00000000000000));
#456=VECTOR('',#455,1.00000000000000);
#457=LINE('',#454,#456);
#458=EDGE_CURVE('',#415,#447,#457,.T.);
#459=ORIENTED_EDGE('',*,*,#458,.F.);
#460=ORIENTED_EDGE('',*,*,#420,.T.);
#461=EDGE_LOOP('',(#445,#453,#459,#460));
#462=FACE_OUTER_BOUND('',#461,.T.);
#463=CARTESIAN_POINT('',(5.13506515398912,4.63561587250004,0.856881042885226));
#464=DIRECTION('',(0.00000000000000,-0.00000000000000,1.00000000000000));
#465=DIRECTION('',(1.00000000000000,-0.00000000000000,-0.00000000000000));
#466=AXIS2_PLACEMENT_3D('',#463,#464,#465);
#467=PLANE('',#466);
#468=ADVANCED_FACE('',(#462),#467,.T.);
#469=CARTESIAN_POINT('',(4.79806515398912,10.6356158725000,0.836881042885226));
#470=VERTEX_POINT('',#469);
#471=CARTESIAN_POINT('',(4.81806515398912,10.6356158725000,0.836881042885226));
#472=DIRECTION('',(0.00000000000000,-1.00000000000000,6.12323399573677E-17));
#473=DIRECTION('',(1.00000000000000,0.00000000000000,0.00000000000000));
#474=AXIS2_PLACEMENT_3D('',#471,#472,#473);
#475=CIRCLE('',#474,0.0200000000000000);
#476=EDGE_CURVE('',#439,#470,#475,.T.);
#477=ORIENTED_EDGE('',*,*,#476,.T.);
#478=CARTESIAN_POINT('',(4.79806515398912,4.63561587250004,0.836881042885226));
#479=VERTEX_POINT('',#478);
#480=CARTESIAN_POINT('',(4.79806515398912,4.63561587250004,0.836881042885226));
#481=DIRECTION('',(0.00000000000000,1.00000000000000,0.00000000000000));
#482=VECTOR('',#481,1.00000000000000);
#483=LINE('',#480,#482);
#484=EDGE_CURVE('',#479,#470,#483,.T.);
#485=ORIENTED_EDGE('',*,*,#484,.F.);
#486=CARTESIAN_POINT('',(4.81806515398912,4.63561587250004,0.836881042885226));
#487=DIRECTION('',(0.00000000000000,-1.00000000000000,6.12323399573677E-17));
#488=DIRECTION('',(1.00000000000000,0.00000000000000,0.00000000000000));
#489=AXIS2_PLACEMENT_3D('',#486,#487,#488);
#490=CIRCLE('',#489,0.0200000000000000);
#491=EDGE_CURVE('',#447,#479,#490,.T.);
#492=ORIENTED_EDGE('',*,*,#491,.F.);
#493=ORIENTED_EDGE('',*,*,#452,.T.);
#494=EDGE_LOOP('',(#477,#485,#492,#493));
#495=FACE_OUTER_BOUND('',#494,.T.);
#496=CARTESIAN_POINT('',(4.81806515398912,4.63561587250004,0.836881042885226));
#497=DIRECTION('',(0.00000000000000,1.00000000000000,0.00000000000000));
#498=DIRECTION('',(1.00000000000000,-0.00000000000000,0.00000000000000));
#499=AXIS2_PLACEMENT_3D('',#496,#497,#498);
#500=CYLINDRICAL_SURFACE('',#499,0.0200000000000000);
#501=ADVANCED_FACE('',(#495),#500,.T.);
#502=CARTESIAN_POINT('',(4.79806515398912,10.6356158725000,0.836881042885226));
#503=DIRECTION('',(0.00000000000000,0.00000000000000,-1.00000000000000));
#504=VECTOR('',#503,1.00000000000000);
#505=LINE('',#502,#504);
#506=EDGE_CURVE('',#470,#25,#505,.T.);
#507=ORIENTED_EDGE('',*,*,#506,.T.);
#508=ORIENTED_EDGE('',*,*,#54,.F.);
#509=CARTESIAN_POINT('',(4.79806515398912,4.63561587250004,0.836881042885226));
#510=DIRECTION('',(0.00000000000000,0.00000000000000,-1.00000000000000));
#511=VECTOR('',#510,1.00000000000000);
#512=LINE('',#509,#511);
#513=EDGE_CURVE('',#479,#43,#512,.T.);
#514=ORIENTED_EDGE('',*,*,#513,.F.);
#515=ORIENTED_EDGE('',*,*,#484,.T.);
#516=EDGE_LOOP('',(#507,#508,#514,#515));
#517=FACE_OUTER_BOUND('',#516,.T.);
#518=CARTESIAN_POINT('',(4.79806515398912,4.63561587250004,0.315987855988923));
#519=DIRECTION('',(-1.00000000000000,0.00000000000000,0.00000000000000));
#520=DIRECTION('',(-0.00000000000000,-0.00000000000000,1.00000000000000));
#521=AXIS2_PLACEMENT_3D('',#518,#519,#520);
#522=PLANE('',#521);
#523=ADVANCED_FACE('',(#517),#522,.T.);
#524=ORIENTED_EDGE('',*,*,#32,.F.);
#525=ORIENTED_EDGE('',*,*,#506,.F.);
#526=ORIENTED_EDGE('',*,*,#476,.F.);
#527=ORIENTED_EDGE('',*,*,#444,.F.);
#528=ORIENTED_EDGE('',*,*,#412,.F.);
#529=ORIENTED_EDGE('',*,*,#380,.F.);
#530=ORIENTED_EDGE('',*,*,#349,.F.);
#531=ORIENTED_EDGE('',*,*,#318,.F.);
#532=ORIENTED_EDGE('',*,*,#287,.F.);
#533=ORIENTED_EDGE('',*,*,#256,.F.);
#534=ORIENTED_EDGE('',*,*,#225,.F.);
#535=ORIENTED_EDGE('',*,*,#194,.F.);
#536=ORIENTED_EDGE('',*,*,#163,.F.);
#537=ORIENTED_EDGE('',*,*,#132,.F.);
#538=ORIENTED_EDGE('',*,*,#101,.F.);
#539=ORIENTED_EDGE('',*,*,#70,.F.);
#540=EDGE_LOOP('',(#524,#525,#526,#527,#528,#529,#530,#531,#532,#533,#534,#535,#536,#537,#538,#539));
#541=FACE_OUTER_BOUND('',#540,.T.);
#542=CARTESIAN_POINT('',(4.79806515398912,10.6356158725000,0.511505113690450));
#543=DIRECTION('',(0.00000000000000,1.00000000000000,0.00000000000000));
#544=DIRECTION('',(-1.00000000000000,0.00000000000000,0.00000000000000));
#545=AXIS2_PLACEMENT_3D('',#542,#543,#544);
#546=PLANE('',#545);
#547=ADVANCED_FACE('',(#541),#546,.T.);
#548=ORIENTED_EDGE('',*,*,#513,.T.);
#549=ORIENTED_EDGE('',*,*,#48,.F.);
#550=ORIENTED_EDGE('',*,*,#84,.F.);
#551=ORIENTED_EDGE('',*,*,#115,.F.);
#552=ORIENTED_EDGE('',*,*,#146,.T.);
#553=ORIENTED_EDGE('',*,*,#177,.F.);
#554=ORIENTED_EDGE('',*,*,#208,.F.);
#555=ORIENTED_EDGE('',*,*,#239,.F.);
#556=ORIENTED_EDGE('',*,*,#270,.F.);
#557=ORIENTED_EDGE('',*,*,#301,.F.);
#558=ORIENTED_EDGE('',*,*,#332,.F.);
#559=ORIENTED_EDGE('',*,*,#363,.T.);
#560=ORIENTED_EDGE('',*,*,#394,.T.);
#561=ORIENTED_EDGE('',*,*,#427,.T.);
#562=ORIENTED_EDGE('',*,*,#458,.T.);
#563=ORIENTED_EDGE('',*,*,#491,.T.);
#564=EDGE_LOOP('',(#548,#549,#550,#551,#552,#553,#554,#555,#556,#557,#558,#559,#560,#561,#562,#563));
#565=FACE_OUTER_BOUND('',#564,.T.);
#566=CARTESIAN_POINT('',(4.79806515398912,4.63561587250004,0.511505113690450));
#567=DIRECTION('',(-0.00000000000000,1.00000000000000,-0.00000000000000));
#568=DIRECTION('',(-1.00000000000000,-0.00000000000000,0.00000000000000));
#569=AXIS2_PLACEMENT_3D('',#566,#567,#568);
#570=PLANE('',#569);
#571=ADVANCED_FACE('',(#565),#570,.F.);
#572=CLOSED_SHELL('',(#63,#94,#125,#156,#187,#218,#249,#280,#311,#342,#373,#404,#437,#468,#501,#523,#547,#571));
#573=MANIFOLD_SOLID_BREP('',#572);
#574=COLOUR_RGB('',1.00000000000000,0.00000000000000,0.00000000000000);
#575=FILL_AREA_STYLE_COLOUR('',#574);
#576=FILL_AREA_STYLE('',(#575));
#577=SURFACE_STYLE_FILL_AREA(#576);
#578=SURFACE_SIDE_STYLE('',(#577));
#579=SURFACE_STYLE_USAGE(.BOTH.,#578);
#580=PRESENTATION_STYLE_ASSIGNMENT((#579));
#581=STYLED_ITEM('',(#580),#573);
#582=ADVANCED_BREP_SHAPE_REPRESENTATION('',(#573,#23),#18);
#583=PRODUCT('', '', ' ',(#2));
#584=PRODUCT_DEFINITION_FORMATION_WITH_SPECIFIED_SOURCE (' ', ' ', #583, .NOT_KNOWN.) ;
#585=PRODUCT_CATEGORY('part','') ;
#586=PRODUCT_RELATED_PRODUCT_CATEGORY('detail', ' ', (#583)) ;
#587=PRODUCT_CATEGORY_RELATIONSHIP(' ', ' ', #585, #586);
#588=PRODUCT_DEFINITION('', '', #584, #1);
#589=PRODUCT_DEFINITION_SHAPE('NONE', 'NONE', #588);
#590=SHAPE_DEFINITION_REPRESENTATION(#589, #582);
#591=PRESENTATION_LAYER_ASSIGNMENT('1','Unnamed [1]',(#573));
#592=MECHANICAL_DESIGN_GEOMETRIC_PRESENTATION_REPRESENTATION('',(#581), #18);
ENDSEC;
END-ISO-10303-21;
