ISO-10303-21;
HEADER;
FILE_DESCRIPTION((''),'2;1');
FILE_NAME('C:/Program Files/Kubotek/KeyCreatorPro.2021.SP0/STEP/SG1035.STP', '2021-02-11T16:12:48',(''), (''), 'KCM Version 2.0.6974.6974', 'KeyCreator Pro', '');
FILE_SCHEMA(('AUTOMOTIVE_DESIGN'));
ENDSEC;
DATA;
#1=PRODUCT_DEFINITION_CONTEXT('',#4,'design');
#2=PRODUCT_CONTEXT('',#4,'mechanical');
#3=APPLICATION_PROTOCOL_DEFINITION('International Standard','automotive_design',2001,#4);
#4=APPLICATION_CONTEXT('automotive design');
#10=DIMENSIONAL_EXPONENTS(1.0,0.0,0.0,0.0,0.0,0.0,0.0);
#11=DIMENSIONAL_EXPONENTS(0.0,0.0,0.0,0.0,0.0,0.0,0.0);
#12=(NAMED_UNIT(#10)LENGTH_UNIT()SI_UNIT(.MILLI.,.METRE.));
#13=(NAMED_UNIT(#11)PLANE_ANGLE_UNIT()SI_UNIT($,.RADIAN.));
#14=(NAMED_UNIT(#11)SOLID_ANGLE_UNIT()SI_UNIT($,.STERADIAN.));
#15=LENGTH_MEASURE_WITH_UNIT(LENGTH_MEASURE(25.4),#12);
#16= (CONVERSION_BASED_UNIT('INCH',#15)LENGTH_UNIT()NAMED_UNIT(#10));
#17=UNCERTAINTY_MEASURE_WITH_UNIT(LENGTH_MEASURE(1.0E-006),#16,'','');
#18=(GEOMETRIC_REPRESENTATION_CONTEXT(3)GLOBAL_UNCERTAINTY_ASSIGNED_CONTEXT((#17))GLOBAL_UNIT_ASSIGNED_CONTEXT((#16,#13,#14))REPRESENTATION_CONTEXT('NONE','WORKSPACE'));
#20=CARTESIAN_POINT('',(0.00000000000000,0.00000000000000,0.00000000000000));
#21=DIRECTION('',(0.00000000000000,0.00000000000000,1.00000000000000));
#22=DIRECTION('',(1.00000000000000,0.00000000000000,0.00000000000000));
#23=AXIS2_PLACEMENT_3D('',#20,#21,#22);
#24=CARTESIAN_POINT('',(6.11794912529904,12.8527409758662,0.513063449971117));
#25=VERTEX_POINT('',#24);
#26=CARTESIAN_POINT('',(9.86794912529904,12.8527409758662,0.513063449971116));
#27=VERTEX_POINT('',#26);
#28=CARTESIAN_POINT('',(6.11794912529904,12.8527409758662,0.513063449971117));
#29=DIRECTION('',(1.00000000000000,0.00000000000000,0.00000000000000));
#30=VECTOR('',#29,1.00000000000000);
#31=LINE('',#28,#30);
#32=EDGE_CURVE('',#25,#27,#31,.T.);
#33=ORIENTED_EDGE('',*,*,#32,.T.);
#34=CARTESIAN_POINT('',(9.86794912529904,6.85274097586620,0.513063449971123));
#35=VERTEX_POINT('',#34);
#36=CARTESIAN_POINT('',(9.86794912529904,6.85274097586620,0.513063449971123));
#37=DIRECTION('',(-5.92118946466750E-16,1.00000000000000,-1.14723045877933E-15));
#38=VECTOR('',#37,1.00000000000000);
#39=LINE('',#36,#38);
#40=EDGE_CURVE('',#35,#27,#39,.T.);
#41=ORIENTED_EDGE('',*,*,#40,.F.);
#42=CARTESIAN_POINT('',(6.11794912529904,6.85274097586620,0.513063449971124));
#43=VERTEX_POINT('',#42);
#44=CARTESIAN_POINT('',(6.11794912529904,6.85274097586620,0.513063449971124));
#45=DIRECTION('',(1.00000000000000,0.00000000000000,0.00000000000000));
#46=VECTOR('',#45,1.00000000000000);
#47=LINE('',#44,#46);
#48=EDGE_CURVE('',#43,#35,#47,.T.);
#49=ORIENTED_EDGE('',*,*,#48,.F.);
#50=CARTESIAN_POINT('',(6.11794912529904,6.85274097586620,0.513063449971124));
#51=DIRECTION('',(-5.92118946466750E-16,1.00000000000000,-1.14723045877933E-15));
#52=VECTOR('',#51,1.00000000000000);
#53=LINE('',#50,#52);
#54=EDGE_CURVE('',#43,#25,#53,.T.);
#55=ORIENTED_EDGE('',*,*,#54,.T.);
#56=EDGE_LOOP('',(#33,#41,#49,#55));
#57=FACE_OUTER_BOUND('',#56,.T.);
#58=CARTESIAN_POINT('',(7.99294912529904,6.85274097586620,0.513063449971124));
#59=DIRECTION('',(0.00000000000000,-1.14723045877933E-15,-1.00000000000000));
#60=DIRECTION('',(-1.00000000000000,-0.00000000000000,-0.00000000000000));
#61=AXIS2_PLACEMENT_3D('',#58,#59,#60);
#62=PLANE('',#61);
#63=ADVANCED_FACE('',(#57),#62,.T.);
#64=CARTESIAN_POINT('',(9.86794912529904,12.8527409758662,-0.611936550028883));
#65=VERTEX_POINT('',#64);
#66=CARTESIAN_POINT('',(9.86794912529904,12.8527409758662,0.513063449971116));
#67=DIRECTION('',(0.00000000000000,-7.89491928622334E-16,-1.00000000000000));
#68=VECTOR('',#67,1.00000000000000);
#69=LINE('',#66,#68);
#70=EDGE_CURVE('',#27,#65,#69,.T.);
#71=ORIENTED_EDGE('',*,*,#70,.T.);
#72=CARTESIAN_POINT('',(9.86794912529904,6.85274097586620,-0.611936550028876));
#73=VERTEX_POINT('',#72);
#74=CARTESIAN_POINT('',(9.86794912529904,6.85274097586620,-0.611936550028876));
#75=DIRECTION('',(-5.92118946466750E-16,1.00000000000000,-1.14723045877933E-15));
#76=VECTOR('',#75,1.00000000000000);
#77=LINE('',#74,#76);
#78=EDGE_CURVE('',#73,#65,#77,.T.);
#79=ORIENTED_EDGE('',*,*,#78,.F.);
#80=CARTESIAN_POINT('',(9.86794912529904,6.85274097586620,0.513063449971123));
#81=DIRECTION('',(0.00000000000000,-7.89491928622334E-16,-1.00000000000000));
#82=VECTOR('',#81,1.00000000000000);
#83=LINE('',#80,#82);
#84=EDGE_CURVE('',#35,#73,#83,.T.);
#85=ORIENTED_EDGE('',*,*,#84,.F.);
#86=ORIENTED_EDGE('',*,*,#40,.T.);
#87=EDGE_LOOP('',(#71,#79,#85,#86));
#88=FACE_OUTER_BOUND('',#87,.T.);
#89=CARTESIAN_POINT('',(9.86794912529904,6.85274097586620,-0.0494365500288763));
#90=DIRECTION('',(-1.00000000000000,-5.92118946466750E-16,4.67473129019859E-31));
#91=DIRECTION('',(-0.00000000000000,7.89491928622334E-16,1.00000000000000));
#92=AXIS2_PLACEMENT_3D('',#89,#90,#91);
#93=PLANE('',#92);
#94=ADVANCED_FACE('',(#88),#93,.T.);
#95=CARTESIAN_POINT('',(9.99294912529904,12.8527409758662,-0.611936550028883));
#96=VERTEX_POINT('',#95);
#97=CARTESIAN_POINT('',(9.86794912529904,12.8527409758662,-0.611936550028883));
#98=DIRECTION('',(1.00000000000000,0.00000000000000,0.00000000000000));
#99=VECTOR('',#98,1.00000000000000);
#100=LINE('',#97,#99);
#101=EDGE_CURVE('',#65,#96,#100,.T.);
#102=ORIENTED_EDGE('',*,*,#101,.T.);
#103=CARTESIAN_POINT('',(9.99294912529904,6.85274097586620,-0.611936550028876));
#104=VERTEX_POINT('',#103);
#105=CARTESIAN_POINT('',(9.99294912529904,6.85274097586620,-0.611936550028876));
#106=DIRECTION('',(-5.92118946466750E-16,1.00000000000000,-1.14723045877933E-15));
#107=VECTOR('',#106,1.00000000000000);
#108=LINE('',#105,#107);
#109=EDGE_CURVE('',#104,#96,#108,.T.);
#110=ORIENTED_EDGE('',*,*,#109,.F.);
#111=CARTESIAN_POINT('',(9.86794912529904,6.85274097586620,-0.611936550028876));
#112=DIRECTION('',(1.00000000000000,0.00000000000000,0.00000000000000));
#113=VECTOR('',#112,1.00000000000000);
#114=LINE('',#111,#113);
#115=EDGE_CURVE('',#73,#104,#114,.T.);
#116=ORIENTED_EDGE('',*,*,#115,.F.);
#117=ORIENTED_EDGE('',*,*,#78,.T.);
#118=EDGE_LOOP('',(#102,#110,#116,#117));
#119=FACE_OUTER_BOUND('',#118,.T.);
#120=CARTESIAN_POINT('',(9.93044912529904,6.85274097586620,-0.611936550028876));
#121=DIRECTION('',(0.00000000000000,-1.14723045877933E-15,-1.00000000000000));
#122=DIRECTION('',(-1.00000000000000,-0.00000000000000,-0.00000000000000));
#123=AXIS2_PLACEMENT_3D('',#120,#121,#122);
#124=PLANE('',#123);
#125=ADVANCED_FACE('',(#119),#124,.T.);
#126=CARTESIAN_POINT('',(9.99294912529904,12.8527409758662,0.608050801360718));
#127=VERTEX_POINT('',#126);
#128=CARTESIAN_POINT('',(9.99294912529904,12.8527409758662,0.608050801360718));
#129=DIRECTION('',(0.00000000000000,7.28022646045030E-16,1.00000000000000));
#130=VECTOR('',#129,1.00000000000000);
#131=LINE('',#128,#130);
#132=EDGE_CURVE('',#96,#127,#131,.T.);
#133=ORIENTED_EDGE('',*,*,#132,.T.);
#134=CARTESIAN_POINT('',(9.99294912529904,6.85274097586620,0.608050801360725));
#135=VERTEX_POINT('',#134);
#136=CARTESIAN_POINT('',(9.99294912529904,6.85274097586620,0.608050801360725));
#137=DIRECTION('',(-5.92118946466750E-16,1.00000000000000,-1.14723045877933E-15));
#138=VECTOR('',#137,1.00000000000000);
#139=LINE('',#136,#138);
#140=EDGE_CURVE('',#135,#127,#139,.T.);
#141=ORIENTED_EDGE('',*,*,#140,.F.);
#142=CARTESIAN_POINT('',(9.99294912529904,6.85274097586620,0.608050801360725));
#143=DIRECTION('',(0.00000000000000,-7.28022646045030E-16,-1.00000000000000));
#144=VECTOR('',#143,1.00000000000000);
#145=LINE('',#142,#144);
#146=EDGE_CURVE('',#135,#104,#145,.T.);
#147=ORIENTED_EDGE('',*,*,#146,.T.);
#148=ORIENTED_EDGE('',*,*,#109,.T.);
#149=EDGE_LOOP('',(#133,#141,#147,#148));
#150=FACE_OUTER_BOUND('',#149,.T.);
#151=CARTESIAN_POINT('',(9.99294912529904,6.85274097586620,-0.00194287433407547));
#152=DIRECTION('',(1.00000000000000,5.92118946466750E-16,-4.31076002180119E-31));
#153=DIRECTION('',(0.00000000000000,-7.28022646045030E-16,-1.00000000000000));
#154=AXIS2_PLACEMENT_3D('',#151,#152,#153);
#155=PLANE('',#154);
#156=ADVANCED_FACE('',(#150),#155,.T.);
#157=CARTESIAN_POINT('',(9.96294912529904,12.8527409758662,0.638063449971117));
#158=VERTEX_POINT('',#157);
#159=CARTESIAN_POINT('',(9.96294912529904,12.8527409758662,0.608063449971117));
#160=DIRECTION('',(0.00000000000000,-1.00000000000000,6.12323399573677E-17));
#161=DIRECTION('',(1.00000000000000,0.00000000000000,0.00000000000000));
#162=AXIS2_PLACEMENT_3D('',#159,#160,#161);
#163=CIRCLE('',#162,0.0300000000000000);
#164=EDGE_CURVE('',#127,#158,#163,.T.);
#165=ORIENTED_EDGE('',*,*,#164,.T.);
#166=CARTESIAN_POINT('',(9.96294912529904,6.85274097586620,0.638063449971124));
#167=VERTEX_POINT('',#166);
#168=CARTESIAN_POINT('',(9.96294912529904,6.85274097586620,0.638063449971124));
#169=DIRECTION('',(-5.92118946466750E-16,1.00000000000000,-1.14723045877933E-15));
#170=VECTOR('',#169,1.00000000000000);
#171=LINE('',#168,#170);
#172=EDGE_CURVE('',#167,#158,#171,.T.);
#173=ORIENTED_EDGE('',*,*,#172,.F.);
#174=CARTESIAN_POINT('',(9.96294912529904,6.85274097586620,0.608063449971124));
#175=DIRECTION('',(0.00000000000000,-1.00000000000000,6.12323399573677E-17));
#176=DIRECTION('',(1.00000000000000,0.00000000000000,0.00000000000000));
#177=AXIS2_PLACEMENT_3D('',#174,#175,#176);
#178=CIRCLE('',#177,0.0300000000000000);
#179=EDGE_CURVE('',#135,#167,#178,.T.);
#180=ORIENTED_EDGE('',*,*,#179,.F.);
#181=ORIENTED_EDGE('',*,*,#140,.T.);
#182=EDGE_LOOP('',(#165,#173,#180,#181));
#183=FACE_OUTER_BOUND('',#182,.T.);
#184=CARTESIAN_POINT('',(9.96294912529904,6.85274097586620,0.608063449971124));
#185=DIRECTION('',(-5.92118946466750E-16,1.00000000000000,-1.14723045877933E-15));
#186=DIRECTION('',(-0.707255830767466,0.00000000000000,-0.706957700181151));
#187=AXIS2_PLACEMENT_3D('',#184,#185,#186);
#188=CYLINDRICAL_SURFACE('',#187,0.0300000000000000);
#189=ADVANCED_FACE('',(#183),#188,.T.);
#190=CARTESIAN_POINT('',(6.02294912529904,12.8527409758662,0.638063449971117));
#191=VERTEX_POINT('',#190);
#192=CARTESIAN_POINT('',(6.02294912529904,12.8527409758662,0.638063449971117));
#193=DIRECTION('',(-1.00000000000000,0.00000000000000,0.00000000000000));
#194=VECTOR('',#193,1.00000000000000);
#195=LINE('',#192,#194);
#196=EDGE_CURVE('',#158,#191,#195,.T.);
#197=ORIENTED_EDGE('',*,*,#196,.T.);
#198=CARTESIAN_POINT('',(6.02294912529904,6.85274097586620,0.638063449971124));
#199=VERTEX_POINT('',#198);
#200=CARTESIAN_POINT('',(6.02294912529904,6.85274097586620,0.638063449971124));
#201=DIRECTION('',(-5.92118946466750E-16,1.00000000000000,-1.14723045877933E-15));
#202=VECTOR('',#201,1.00000000000000);
#203=LINE('',#200,#202);
#204=EDGE_CURVE('',#199,#191,#203,.T.);
#205=ORIENTED_EDGE('',*,*,#204,.F.);
#206=CARTESIAN_POINT('',(6.02294912529904,6.85274097586620,0.638063449971124));
#207=DIRECTION('',(1.00000000000000,0.00000000000000,0.00000000000000));
#208=VECTOR('',#207,1.00000000000000);
#209=LINE('',#206,#208);
#210=EDGE_CURVE('',#199,#167,#209,.T.);
#211=ORIENTED_EDGE('',*,*,#210,.T.);
#212=ORIENTED_EDGE('',*,*,#172,.T.);
#213=EDGE_LOOP('',(#197,#205,#211,#212));
#214=FACE_OUTER_BOUND('',#213,.T.);
#215=CARTESIAN_POINT('',(7.99294912529904,6.85274097586620,0.638063449971124));
#216=DIRECTION('',(-0.00000000000000,1.14723045877933E-15,1.00000000000000));
#217=DIRECTION('',(1.00000000000000,0.00000000000000,0.00000000000000));
#218=AXIS2_PLACEMENT_3D('',#215,#216,#217);
#219=PLANE('',#218);
#220=ADVANCED_FACE('',(#214),#219,.T.);
#221=CARTESIAN_POINT('',(5.99294912529904,12.8527409758662,0.608048354007957));
#222=VERTEX_POINT('',#221);
#223=CARTESIAN_POINT('',(6.02294912529904,12.8527409758662,0.608063449971117));
#224=DIRECTION('',(0.00000000000000,-1.00000000000000,6.12323399573677E-17));
#225=DIRECTION('',(1.00000000000000,0.00000000000000,0.00000000000000));
#226=AXIS2_PLACEMENT_3D('',#223,#224,#225);
#227=CIRCLE('',#226,0.0300000000000000);
#228=EDGE_CURVE('',#191,#222,#227,.T.);
#229=ORIENTED_EDGE('',*,*,#228,.T.);
#230=CARTESIAN_POINT('',(5.99294912529904,6.85274097586620,0.608048354007964));
#231=VERTEX_POINT('',#230);
#232=CARTESIAN_POINT('',(5.99294912529904,6.85274097586620,0.608048354007964));
#233=DIRECTION('',(-5.92118946466750E-16,1.00000000000000,-1.14723045877933E-15));
#234=VECTOR('',#233,1.00000000000000);
#235=LINE('',#232,#234);
#236=EDGE_CURVE('',#231,#222,#235,.T.);
#237=ORIENTED_EDGE('',*,*,#236,.F.);
#238=CARTESIAN_POINT('',(6.02294912529904,6.85274097586620,0.608063449971124));
#239=DIRECTION('',(0.00000000000000,-1.00000000000000,6.12323399573677E-17));
#240=DIRECTION('',(1.00000000000000,0.00000000000000,0.00000000000000));
#241=AXIS2_PLACEMENT_3D('',#238,#239,#240);
#242=CIRCLE('',#241,0.0300000000000000);
#243=EDGE_CURVE('',#199,#231,#242,.T.);
#244=ORIENTED_EDGE('',*,*,#243,.F.);
#245=ORIENTED_EDGE('',*,*,#204,.T.);
#246=EDGE_LOOP('',(#229,#237,#244,#245));
#247=FACE_OUTER_BOUND('',#246,.T.);
#248=CARTESIAN_POINT('',(6.02294912529904,6.85274097586620,0.608063449971124));
#249=DIRECTION('',(-5.92118946466750E-16,1.00000000000000,-1.14723045877933E-15));
#250=DIRECTION('',(1.00000000000000,5.92118946466750E-16,-6.79296890606982E-31));
#251=AXIS2_PLACEMENT_3D('',#248,#249,#250);
#252=CYLINDRICAL_SURFACE('',#251,0.0300000000000000);
#253=ADVANCED_FACE('',(#247),#252,.T.);
#254=CARTESIAN_POINT('',(5.99294912529904,12.8527409758662,-0.611936550028883));
#255=VERTEX_POINT('',#254);
#256=CARTESIAN_POINT('',(5.99294912529904,12.8527409758662,0.608048354007957));
#257=DIRECTION('',(0.00000000000000,-7.28024106496079E-16,-1.00000000000000));
#258=VECTOR('',#257,1.00000000000000);
#259=LINE('',#256,#258);
#260=EDGE_CURVE('',#222,#255,#259,.T.);
#261=ORIENTED_EDGE('',*,*,#260,.T.);
#262=CARTESIAN_POINT('',(5.99294912529904,6.85274097586620,-0.611936550028876));
#263=VERTEX_POINT('',#262);
#264=CARTESIAN_POINT('',(5.99294912529904,6.85274097586620,-0.611936550028876));
#265=DIRECTION('',(-5.92118946466750E-16,1.00000000000000,-1.14723045877933E-15));
#266=VECTOR('',#265,1.00000000000000);
#267=LINE('',#264,#266);
#268=EDGE_CURVE('',#263,#255,#267,.T.);
#269=ORIENTED_EDGE('',*,*,#268,.F.);
#270=CARTESIAN_POINT('',(5.99294912529904,6.85274097586620,0.608048354007964));
#271=DIRECTION('',(0.00000000000000,-7.28024106496079E-16,-1.00000000000000));
#272=VECTOR('',#271,1.00000000000000);
#273=LINE('',#270,#272);
#274=EDGE_CURVE('',#231,#263,#273,.T.);
#275=ORIENTED_EDGE('',*,*,#274,.F.);
#276=ORIENTED_EDGE('',*,*,#236,.T.);
#277=EDGE_LOOP('',(#261,#269,#275,#276));
#278=FACE_OUTER_BOUND('',#277,.T.);
#279=CARTESIAN_POINT('',(5.99294912529904,6.85274097586620,-0.00194409801045614));
#280=DIRECTION('',(-1.00000000000000,-5.92118946466750E-16,4.31076866940856E-31));
#281=DIRECTION('',(-0.00000000000000,7.28024106496079E-16,1.00000000000000));
#282=AXIS2_PLACEMENT_3D('',#279,#280,#281);
#283=PLANE('',#282);
#284=ADVANCED_FACE('',(#278),#283,.T.);
#285=CARTESIAN_POINT('',(6.11794912529904,12.8527409758662,-0.611936550028883));
#286=VERTEX_POINT('',#285);
#287=CARTESIAN_POINT('',(5.99294912529904,12.8527409758662,-0.611936550028883));
#288=DIRECTION('',(1.00000000000000,0.00000000000000,0.00000000000000));
#289=VECTOR('',#288,1.00000000000000);
#290=LINE('',#287,#289);
#291=EDGE_CURVE('',#255,#286,#290,.T.);
#292=ORIENTED_EDGE('',*,*,#291,.T.);
#293=CARTESIAN_POINT('',(6.11794912529904,6.85274097586620,-0.611936550028876));
#294=VERTEX_POINT('',#293);
#295=CARTESIAN_POINT('',(6.11794912529904,6.85274097586620,-0.611936550028876));
#296=DIRECTION('',(-5.92118946466750E-16,1.00000000000000,-1.14723045877933E-15));
#297=VECTOR('',#296,1.00000000000000);
#298=LINE('',#295,#297);
#299=EDGE_CURVE('',#294,#286,#298,.T.);
#300=ORIENTED_EDGE('',*,*,#299,.F.);
#301=CARTESIAN_POINT('',(5.99294912529904,6.85274097586620,-0.611936550028876));
#302=DIRECTION('',(1.00000000000000,0.00000000000000,0.00000000000000));
#303=VECTOR('',#302,1.00000000000000);
#304=LINE('',#301,#303);
#305=EDGE_CURVE('',#263,#294,#304,.T.);
#306=ORIENTED_EDGE('',*,*,#305,.F.);
#307=ORIENTED_EDGE('',*,*,#268,.T.);
#308=EDGE_LOOP('',(#292,#300,#306,#307));
#309=FACE_OUTER_BOUND('',#308,.T.);
#310=CARTESIAN_POINT('',(6.05544912529904,6.85274097586620,-0.611936550028876));
#311=DIRECTION('',(0.00000000000000,-1.14723045877933E-15,-1.00000000000000));
#312=DIRECTION('',(-1.00000000000000,-0.00000000000000,-0.00000000000000));
#313=AXIS2_PLACEMENT_3D('',#310,#311,#312);
#314=PLANE('',#313);
#315=ADVANCED_FACE('',(#309),#314,.T.);
#316=CARTESIAN_POINT('',(6.11794912529904,12.8527409758662,0.513063449971117));
#317=DIRECTION('',(0.00000000000000,7.89491928622333E-16,1.00000000000000));
#318=VECTOR('',#317,1.00000000000000);
#319=LINE('',#316,#318);
#320=EDGE_CURVE('',#286,#25,#319,.T.);
#321=ORIENTED_EDGE('',*,*,#320,.T.);
#322=ORIENTED_EDGE('',*,*,#54,.F.);
#323=CARTESIAN_POINT('',(6.11794912529904,6.85274097586620,0.513063449971124));
#324=DIRECTION('',(0.00000000000000,-7.89491928622333E-16,-1.00000000000000));
#325=VECTOR('',#324,1.00000000000000);
#326=LINE('',#323,#325);
#327=EDGE_CURVE('',#43,#294,#326,.T.);
#328=ORIENTED_EDGE('',*,*,#327,.T.);
#329=ORIENTED_EDGE('',*,*,#299,.T.);
#330=EDGE_LOOP('',(#321,#322,#328,#329));
#331=FACE_OUTER_BOUND('',#330,.T.);
#332=CARTESIAN_POINT('',(6.11794912529904,6.85274097586620,-0.0494365500288758));
#333=DIRECTION('',(1.00000000000000,5.92118946466750E-16,-4.67473129019859E-31));
#334=DIRECTION('',(0.00000000000000,-7.89491928622333E-16,-1.00000000000000));
#335=AXIS2_PLACEMENT_3D('',#332,#333,#334);
#336=PLANE('',#335);
#337=ADVANCED_FACE('',(#331),#336,.T.);
#338=ORIENTED_EDGE('',*,*,#32,.F.);
#339=ORIENTED_EDGE('',*,*,#320,.F.);
#340=ORIENTED_EDGE('',*,*,#291,.F.);
#341=ORIENTED_EDGE('',*,*,#260,.F.);
#342=ORIENTED_EDGE('',*,*,#228,.F.);
#343=ORIENTED_EDGE('',*,*,#196,.F.);
#344=ORIENTED_EDGE('',*,*,#164,.F.);
#345=ORIENTED_EDGE('',*,*,#132,.F.);
#346=ORIENTED_EDGE('',*,*,#101,.F.);
#347=ORIENTED_EDGE('',*,*,#70,.F.);
#348=EDGE_LOOP('',(#338,#339,#340,#341,#342,#343,#344,#345,#346,#347));
#349=FACE_OUTER_BOUND('',#348,.T.);
#350=CARTESIAN_POINT('',(6.11794912529904,12.8527409758662,0.161697824971117));
#351=DIRECTION('',(-5.99918520624412E-16,1.00000000000000,-1.14805966280922E-15));
#352=DIRECTION('',(-1.00000000000000,-5.99918520624412E-16,2.41301962516677E-61));
#353=AXIS2_PLACEMENT_3D('',#350,#351,#352);
#354=PLANE('',#353);
#355=ADVANCED_FACE('',(#349),#354,.T.);
#356=ORIENTED_EDGE('',*,*,#327,.F.);
#357=ORIENTED_EDGE('',*,*,#48,.T.);
#358=ORIENTED_EDGE('',*,*,#84,.T.);
#359=ORIENTED_EDGE('',*,*,#115,.T.);
#360=ORIENTED_EDGE('',*,*,#146,.F.);
#361=ORIENTED_EDGE('',*,*,#179,.T.);
#362=ORIENTED_EDGE('',*,*,#210,.F.);
#363=ORIENTED_EDGE('',*,*,#243,.T.);
#364=ORIENTED_EDGE('',*,*,#274,.T.);
#365=ORIENTED_EDGE('',*,*,#305,.T.);
#366=EDGE_LOOP('',(#356,#357,#358,#359,#360,#361,#362,#363,#364,#365));
#367=FACE_OUTER_BOUND('',#366,.T.);
#368=CARTESIAN_POINT('',(6.11794912529904,6.85274097586620,0.161697824971124));
#369=DIRECTION('',(-5.99918520624412E-16,1.00000000000000,-1.14805966280922E-15));
#370=DIRECTION('',(-1.00000000000000,-5.99918520624412E-16,0.00000000000000));
#371=AXIS2_PLACEMENT_3D('',#368,#369,#370);
#372=PLANE('',#371);
#373=ADVANCED_FACE('',(#367),#372,.F.);
#374=CLOSED_SHELL('',(#63,#94,#125,#156,#189,#220,#253,#284,#315,#337,#355,#373));
#375=MANIFOLD_SOLID_BREP('',#374);
#376=COLOUR_RGB('',1.00000000000000,0.00000000000000,0.00000000000000);
#377=FILL_AREA_STYLE_COLOUR('',#376);
#378=FILL_AREA_STYLE('',(#377));
#379=SURFACE_STYLE_FILL_AREA(#378);
#380=SURFACE_SIDE_STYLE('',(#379));
#381=SURFACE_STYLE_USAGE(.BOTH.,#380);
#382=PRESENTATION_STYLE_ASSIGNMENT((#381));
#383=STYLED_ITEM('',(#382),#375);
#384=ADVANCED_BREP_SHAPE_REPRESENTATION('',(#375,#23),#18);
#385=PRODUCT('', '', ' ',(#2));
#386=PRODUCT_DEFINITION_FORMATION_WITH_SPECIFIED_SOURCE (' ', ' ', #385, .NOT_KNOWN.) ;
#387=PRODUCT_CATEGORY('part','') ;
#388=PRODUCT_RELATED_PRODUCT_CATEGORY('detail', ' ', (#385)) ;
#389=PRODUCT_CATEGORY_RELATIONSHIP(' ', ' ', #387, #388);
#390=PRODUCT_DEFINITION('', '', #386, #1);
#391=PRODUCT_DEFINITION_SHAPE('NONE', 'NONE', #390);
#392=SHAPE_DEFINITION_REPRESENTATION(#391, #384);
#393=PRESENTATION_LAYER_ASSIGNMENT('1','Unnamed [1]',(#375));
#394=MECHANICAL_DESIGN_GEOMETRIC_PRESENTATION_REPRESENTATION('',(#383), #18);
ENDSEC;
END-ISO-10303-21;
